Log in

One click and you are in

Login with Facebook Login with Google

Why sign up and log in

Guitar Tabs Explorer
The Moody Blues bass tabs for Im just a singer

I'm Just A Singer bass tab by The Moody Blues

The Moody Blues bass tabs for Im just a singer

Bass tabs

moody_blues/i'm_just_a_singer.btab

Basstab by Jan Bjorklund, Finland;
jani_bjorklund@yahoo.se
You are welcome to request for basstabs!
Bienvenidos a pedirme transcripciones para el bajo!

TablEdited by Jan Bjorklund

Tuning : E A D G 	Time Signature: 4/4

 |    |    |    |    |    |    |    |
|--------4---2-------------------|--------4---2-------------------|
|--------------------4---2---0---|--------------------4---2---0---|
|2---2---------------------------|2---2---------------------------|
|--------------------------------|--------------------------------|

 |    |    |    |    |   |    |    |
|--------4---2-------------------|--------------------------------|
|--------------------4---2---0---|-----so on until the 13:th bar--|
|2---2---------------------------|--------------------------------|
|--------------------------------|--------------------------------|

 |    |    |    |    |    |    |    |
|----------------------------9---|--------------------------------|
|------------------------9-------|2-------2---2-------0-----------|
|7-------7-------7---------------|------------------------2---0---|
|--------------------------------|--------------------------------|

 |    |    |    |    |    |    |    |
|--------------------2-----------|------------------------2---4---|
|----------------4-----------2---|4-------4-------4---4-----------|
|------------------------2-------|--------------------------------|
|2-------2-----------------------|--------------------------------|

 |    |    |    |    |    |    |    |
|--------4-----------------------|--------4---2-------------------|
|----------------4---3---2---0---|--------------------4---2---0---|
|2-------------------------------|2-------------------------------|
|--------------------------------|--------------------------------|

 |    |    |    |    |    |    |   |
|--------4---2-------------------|--------4---2-------------------|
|--------------------4---2---0---|--------------------4---2---0---|
|2-------------------------------|2-------------------------------|
|--------------------------------|--------------------------------|

 |    |    |    |    |    |    |    |
|--------------------------------|--------------------------------|
|-----continues until bar 29-----|----------------2---2---0-------|
|--------------------------------|------------2---------------2---|
|--------------------------------|0-------3-----------------------|

 |    |    |    |    |    |    |    |
|--------------------------------|--------------------------------|
|--------------------------------|----------------2---2---2---4---|
|----------------0-------1-------|------------4-------------------|
|0-------3-----------------------|2-------5-----------------------|

 |    |    |    |    |    |    |    |
|--------------------------------|------------4---2---------------|
|--------------------------------|--------------------4---2---0---|
|------------------------1-------|2-------------------------------|
|2-------3-------4---------------|--------------------------------|

 |    |    |    |    |    |    |    |
|------------4---2---------------|--------4---2-------------------|
|--------------------4---2---0---|--------------------4---2---0---|
|2---2---------------------------|2-------------------------------|
|--------------------------------|--------------------------------|

 |    |    |    |    |    |    |    |
|--------4---2-------------------|--------------------------------|
|--------------------4---2---0---|4-------4-------4---4---4---4---|
|2---2---------------------------|--------------------------------|
|--------------------------------|--------------------------------|

 |    |    |    |    |    |    |    |
|--------------------------------|------------------------0---2---|
|4-------4-------4---4---4-------|2-------2-------2---4-----------|
|----------------------------5---|--------------------------------|
|--------------------------------|--------------------------------|

 |    |    |    |    |    |    |    |
|2-------2-------2---1---2---4---|------------------------2---4---|
|--------------------------------|4-------4-----------------------|
|--------------------------------|--------------------------------|
|--------------------------------|--------------------------------|

 |    |    |    |    |    |    |    |
|4-------4-----------2---0-------|------------------------0---2---|
|----------------------------4---|2-------2-----------4-----------|
|--------------------------------|--------------------------------|
|--------------------------------|--------------------------------|

 |    |    |    |    |    |    |    |
|2-------2-------2---1---2---4---|4-------4-------4---2---1-------|
|--------------------------------|----------------------------2---|
|--------------------------------|--------------------------------|
|--------------------------------|--------------------------------|

 |    |    |    |    |    |    |    |
|--------------------1---2---3---|4-------4-------4---2---1-------|
|4-------4-----------------------|----------------------------4---|
|--------------------------------|--------------------------------|
|--------------------------------|--------------------------------|

 |    |    |    |    |    |    |    |
|--------------------------------|--------------------------------|
|4-------4-------2-------2-------|--------------------------------|
|--------------------------------|2---2---2---2-------------------|
|--------------------------------|--------------------------------|

 and now use what|you have!    |    |    |    |
|--------4---2-------------------|--------4---2-------------------|
|--------------------4---2---0---|--------------------4---2---0---|
|2---2---------------------------|2---2---------------------------|
|--------------------------------|--------------------------------|

Almost there ...

Sign in to get your own page with links to favourite songs and more. You are just one click away...

Login with Facebook Login with Google