Log in

One click and you are in

Login with Facebook Login with Google

Why sign up and log in

Guitar Tabs Explorer
The Moody Blues bass tabs for Go now

Bass tabs

moody_blues/go_now.btab

Basstab by Jan Bjorklund, Finland;
jani_bjorklund@yahoo.se
You are welcome to request for basstabs!
Bienvenidos a pedirme transcripciones para el bajo!

TablEdited by Jan Bjorklund

Tuning : E A D G 	Time Signature: 3/4

 Tempo 110   |        |
|------------------------------------------------|
|6-----------------------------------------6-----|
|------------------------------------------------|
|------------------------------------------------|

 |        |        |
|------------------------------------------------|
|5-----------------------------------------5-----|
|------------------------------------------------|
|------------------------------------------------|

 |        |        |
|------------------------------------------------|
|------------------------------------------------|
|8-----------------------------------------8-----|
|------------------------------------------------|

 |        |        |
|------------------------------------------------|
|------------------------------------------------|
|6-----------------------------------------6-----|
|------------------------------------------------|

 |        |        |
|------------------------------------------------|
|------------------------------------------------|
|------------------------------------------------|
|9-----------------------------------------9-----|

 |        |        |
|------------------------------------------------|
|------------------------------------------------|
|------------------------------------------------|
|6-------------------------------6---------------|

 |        |        |
|------------------------------------------------|
|------------------------------------------------|
|6-----------------------------------------------|
|------------------------------------------6-----|

 |        |        |
|------------------------------------------------|
|--------------------------------5---------------|
|6---------------8-------------------------------|
|------------------------------------------------|

 |        |        |
|------------------------------------------------|
|6-----------------------------------------6-----|
|------------------------------------------------|
|------------------------------------------------|

 |        |        |
|------------------------------------------------|
|5-----------------------------------------5-----|
|------------------------------------------------|
|------------------------------------------------|

 |        |        |
|------------------------------------------------|
|------------------------------------------------|
|8-----------------------------------------8-----|
|------------------------------------------------|

 |        |        |
|------------------------------------------------|
|------------------------------------------------|
|6-----------------------------------------6-----|
|------------------------------------------------|

 |        |        |
|------------------------------------------------|
|------------------------------------------------|
|------------------------------------------------|
|9-----------------------------------------9-----|

 |        |        |
|------------------------------------------------|
|------------------------------------------------|
|------------------------------------------------|
|6-----------------------------------------6-----|

 |        |        |
|------------------------------------------------|
|------------------------------------------------|
|6-----------------------------------------------|
|------------------------------------------6-----|

 |        |        |
|------------------------------------------------|
|------------------------------------------------|
|7-----------------------------------------------|
|------------------------------------------8-----|

 |        |        |
|------------------------------------------------|
|------------------------------------------------|
|8-----------------------------------------------|
|------------------------------------------8-----|

 |        |        |
|------------------------------------------------|
|------------------------------------------------|
|8-----------------------------------------------|
|------------------------------------------8-----|

 |        |        |
|------------------------------------------------|
|------------------------------------------------|
|8-----------------------------------------------|
|------------------------------------------8-----|

 |        |        |
|------------------------------------------------|
|------------------------------------------------|
|8-----------------------------------------8-----|
|------------------------------------------------|

 |        |        |
|------------------------------------------------|
|--------------------------------10--8-----------|
|------------------------10--------------10------|
|8-----------------------------------------------|

 |        |        |
|------------------------------------------------|
|-------------------------------10-------8-------|
|------------------------10----------------------|
|8-----------------------------------------------|

 |        |        |
|------------------------------------------------|
|10------------------------------8---------------|
|------------------------10--------------10------|
|------------------------------------------------|

 |        |        |
|------------------------------------------------|
|10------------------------------8---------------|
|------------------------10--------------10------|
|------------------------------------------------|

 |        |        |
|--------------------------------10--8-----------|
|------------------------10--------------10------|
|8-----------------------------------------------|
|------------------------------------------------|

 |        |        |
|--------------------------------10--8-----------|
|------------------------10--------------10------|
|8-----------------------------------------------|
|------------------------------------------------|

 |        |        |
|--------------------------------10--8-----------|
|------------------------10--------------10------|
|8-----------------------------------------------|
|------------------------------------------------|

 |        |        |
|--------------------------------10--------------|
|------------------------10--------------10------|
|8-----------------------------------------------|
|------------------------------------------------|

 |        |        |
|------------------------------------------------|
|10------------------------------8---------------|
|------------------------10--------------10------|
|------------------------------------------------|

 |        |        |
|------------------------------------------------|
|10------------------------------8---------------|
|------------------------10--------------10------|
|------------------------------------------------|

 |        |        |
|------------------------------------------------|
|8-----------------------------------------------|
|------------------------------------------------|
|------------------------------------------------|

 |     Break!|and repeat   |
|------------------------------------------------|
|------------------------------------------------|
|6-----------------------------------------------|
|------------------------------------------------|

Almost there ...

Sign in to get your own page with links to favourite songs and more. You are just one click away...

Login with Facebook Login with Google