Llama by Monty Python

Llama tab by Monty Python

Guitar tabs

https://www.youtube.com/watch?v=hBaUmx5s6iE

Intro:

"The llama is a quadruped which lives in big rivers like the Amazon."


e|------------------0--|
B|------------------0--|
G|-1-1-1-1-2-2-2-2--1--|
D|-2-2-2-2-3-3-3-3--2--|
A|-2-2-2-2-3-3-3-3--2--|
E|------------------0--|


"It has two ears, a heart, a forehead, and a beak for eating honey. But it is provided with fins for swimming"


e|------------------0--|
B|------------------0--|
G|-1-1-1-1-2-2-2-2--1--|
D|-2-2-2-2-3-3-3-3--2--|
A|-2-2-2-2-3-3-3-3--2--|
E|------------------0--|


Chorus:

 "Llamas are larger than frogs."

e|-0--0-0-0-0-0-0-0-0-0-0-|
B|-0--0-0-0-0-0-0-0-0-0-0-|
G|-1--2-2-1-1-1-1-1-1-1-1-|
D|-2--3-3-2-2-2-2-2-2-2-2-|
A|-2--3-3-2-2-2-2-2-2-2-2-|
E|-0--0-0-0-0-0-0-0-0-0-0-|


Outro:

Llamas are dangerous, so if you see one where people are swimming, you shout...


e|------------------0--|
B|------------------0--|
G|-1-1-1-1-2-2-2-2--1--|
D|-2-2-2-2-3-3-3-3--2--|
A|-2-2-2-2-3-3-3-3--2--|
E|------------------0--|


Look out look out there Llamas"

e|------------------0-0-0-0-|
B|------------------0-0-0-0-|
G|-1-1-1-1-2-2-2-2--1-1-1-1-|
D|-2-2-2-2-3-3-3-3--2-2-2-2-|
A|-2-2-2-2-3-3-3-3--2-2-2-2-|

Find guitar tabs and chords

A B C D E F G H I J K L M N O P Q R S T U V W X Y Z #