Log in

One click and you are in

Login with Facebook Login with Google

Why sign up and log in

Guitar Tabs Explorer
Wes Montgomery guitar tabs for Unidentified guitar solo

Unidentified Guitar Solo tab by Wes Montgomery

Wes Montgomery guitar tabs for Unidentified guitar solo

Guitar tabs

Unidentified Guitar Solo

Guitar On The Go - 1959                              Wes Montgomery

E||-----------------|-----------------|----------------|----------------|
B||--------------5--|--5----5----5----|--5--------3----|--3----2--------|
G||-----------2-----|--3--------------|--3-------------|--4----4--------|
D||--------2--------|--3--------------|--3-------------|--3----2--------|
A||-----------------|--0--------------|--0-------------|--0----0--------|
E||-----------------|-----------------|----------------|----------------|


-----------------|-----------------|----------------|---------------|
--------------2--|--2----2----2----|--2------0-2----|---------------|
-----------2-----|--2--------------|--2-------------|--2------------|
--------2--------|--3--------------|--3-------------|--2------------|
-----------------|--0--------------|--0-------------|--4------------|
-----------------|-----------------|----------------|--0------------|


-----------------|-----------------|--3-------------|----------------|
--------------5--|--5----5----5----|--4--------5----|--4----4--------|
-----------2-----|--3--------------|--3-------------|--4-------------|
--------2--------|--3--------------|--2-------------|--4-------------|
-----------------|--0--------------|--0-------------|--0-------------|
-----------------|-----------------|----------------|----------------|


-----------------|-----------------|----------------|---------------|
-------4----4----|--3----3----6----|--5--------3----|--2------------|
-------4---------|--3--------------|--5--------3----|--4------------|
-------4---------|--3--------------|--5--------3----|--2------------|
--0--------------|--0--------------|--0--------0----|--0------------|
-----------------|-----------------|----------------|---------------|


--9--------12--------|--14----14----12----|--9----7-----------|
--7--------9---------|--12----------------|--7---------10--9--|
--7--------7---------|--13----------------|--7----------------|
--7------------------|--11----------------|--7----------------|
--7------------------|--0-----------------|-------------------|
--0------------------|--------------------|--0----------------|


-------------------|------------------|-----------------|-----------------|
--7----------------|-------5----------|------------5----|------------3----|
--6----6-----------|----------7----6--|--5----7---------|--3----5---------|
--6-------9--7--6--|--4---------------|--5--------------|--3--------------|
--0----------------|--0---------------|--0--------------|--0--------------|
-------------------|------------------|-----------------|-----------------|


---------------|-------9----12----|--14----14----12----|
--2------------|-------7----9-----|--12----------------|
--4------------|-------7----7-----|--13----------------|
--2------------|-------7----------|--11----------------|
--0------------|------------------|--0-----------------|
---------------|--0---------------|--------------------|


--9----7-----------|-------------------|------------------|
--7---------10--9--|--7----------------|-------5----------|
--7----------------|--6----6-----------|----------7----6--|
--7----------------|--6-------9--7--6--|--4---------------|
-------------------|--0----------------|--0---------------|
--0----------------|-------------------|------------------|


-----------------|-----------------|---------------|-----------9--------|
------------5----|--6----8----9----|--9------------|--------------------|
--5----7---------|--7--------------|--6------------|-----------6--------|
--5--------------|--8--------------|--6------------|--------------------|
--0--------------|--0--------------|--0------------|--0-----------------|
-----------------|-----------------|---------------|--------------------|


---------------|-----------7--------|---------------|----------------|
---------------|--6-----------------|---------------|--5-------------|
--7------------|--7--------4--------|--6------------|--4--------6----|
---------------|--6-----------------|---------------|--4-------------|
--5------------|--------------------|--4------------|----------------|
---------------|--0-----------------|---------------|--0-------------|


-----------------|--4----5----7----|--9--------12----|-----------9--------|
--3----5----7----|--6---------7----|--9--------------|--7-----------------|
--2----4----6----|--5---------7----|--9--------------|--9--------6--------|
--4----6----7----|--0---------6----|--7--------------|--7-----------------|
--2----4----5----|-----------------|--0--------------|--0-----------------|
-----------------|-----------------|-----------------|--------------------|


---------------|-----------7--------|---------------|-----------------|
---------------|--6-----------------|---------------|--4----5----4----|
--7------------|--7--------4--------|--6------------|--4--------------|
---------------|--6-----------------|---------------|--4--------------|
--5------------|--------------------|--4------------|-----------------|
---------------|--0-----------------|---------------|--4--------------|


------------4----|--4----3--------|-----------------|--9--------12--------|
--5----7---------|--4----3--------|--3----5----7----|--7--------9---------|
--4--------------|--4----3--------|--2----4----6----|--7--------7---------|
--6--------------|--6----5--------|--4----6----7----|--7------------------|
--4--------------|--4----3--------|--2----4----5----|---------------------|
-----------------|--4----3--------|-----------------|--0--------0---------|


--14----14----12----|--9----7-----------|-------------------|
--12----------------|--7---------10--9--|--7----------------|
--13----------------|--7----------------|--6----6-----------|
--11----------------|--7----------------|--6-------9--7--6--|
--0-----------------|-------------------|--0----------------|
--------------------|--0----------------|-------------------|


------------------|-----------------|-----------------|---------------|
-------5----------|------------5----|------------3----|--2------------|
----------7----6--|--5----7---------|--3----5---------|--4------------|
--4---------------|--5--------------|--3--------------|--2------------|
--0---------------|--0--------------|--0--------------|--0------------|
------------------|-----------------|-----------------|---------------|


-------9----12----|--14----14----12----|--9----7-----------|
-------7----9-----|--12----------------|--7---------10--9--|
-------7----7-----|--13----------------|--7----------------|
-------7----------|--11----------------|--7----------------|
------------------|--0-----------------|-------------------|
--0---------------|--------------------|--0----------------|


-------------------|------------------|-----------------|-----------------|
--7----------------|-------5----------|------------5----|--6----8----9----|
--6----6-----------|----------7----6--|--5----7---------|--7--------------|
--6-------9--7--6--|--4---------------|--5--------------|--8--------------|
--0----------------|------------------|--0--------------|--0--------------|
-------------------|------------------|-----------------|-----------------|


--------------------|-----------9--------|--9---------10----|
--9-----------------|-----------8--------|--7---------10----|
--6-----------------|-----------9--------|--7---------11----|
--6-----------------|-----------8--------|--7---------9-----|
--0-----------------|--0-----------------|------------------|
-----------0--------|--------------------|-------0----------|


--7---------4----|--7---------9----|--5---------2----|--5---------7----|
--6---------3----|--5---------9----|--4---------1----|--3---------7----|
--7---------4----|--6---------9----|--5---------2----|--4---------7----|
--6---------3----|--6---------9----|--4---------1----|--4---------7----|
-----------------|-----------------|-----------------|-----------------|
-------0---------|-------0---------|-------0---------|-------0---------|


--4---------0----|-------------------|-----------9--------|
--3---------2----|--2----------------|-----------8--------|
--4---------1----|--1----------------|--3--------9--------|
--2---------2----|--2----------------|--2/-------8--------|
-----------------|--0----------------|--4/----------------|
-------0---------|-------------------|--2-----------------|


--9---------10----|--7---------4----|--7---------9----|--5---------7----|
--7---------10----|--6---------3----|--5---------9----|--4---------5----|
--7---------11----|--7---------4----|--6---------9----|--5---------6----|
--7---------9-----|--6---------3----|--6---------9----|--4--------------|
------------------|-----------------|-----------------|-----------------|
-------0----------|-------0---------|-------0---------|-------0---------|


--4--------------|----4--3--------|-----------------|--9--------12--------|
--5----5----7----|----4--3--------|--2----3----7----|--7--------9---------|
--4--------------|----3-----------|--1----2----6----|--7--------7---------|
-----------------|----------------|--3----4----7----|--7------------------|
--4--------------|----------------|--1----2----5----|---------------------|
-----------------|----2-----------|-----------------|--0------------------|


--14----14----12----|--9----7-----------|-------------------|
--12----------------|--7---------10--9--|--7----------------|
--13----------------|--7----------------|--6----6-----------|
--11----------------|--7----------------|--6-------9--7--6--|
--0-----------------|-------------------|--0----------------|
--------------------|--0----------------|-------------------|


------------------|-----------------|-----------------|---------------|
-------5----------|------------5----|------------3----|--2------------|
----------7----6--|--5----7---------|--3----5---------|--4------------|
--4---------------|--5--------------|--3--------------|--2------------|
--0---------------|--0--------------|--0--------------|--0------------|
------------------|-----------------|-----------------|---------------|


-------9----12----|--14----14----12----|--9----7-----------|
-------7----9-----|--12----------------|--7---------10--9--|
-------7----7-----|--13----------------|--7----------------|
-------7----------|--11----------------|--7----------------|
------------------|--0-----------------|-------------------|
--0---------------|--------------------|--0----------------|


-------------------|------------------|-----------------|-----------------|
--7----------------|-------5----------|------------5----|--6----8----9----|
--6----6-----------|----------7----6--|--5----7---------|--7--------------|
--6-------9--7--6--|--4---------------|--5--------------|--8--------------|
--0----------------|--0---------------|--0--------------|--0--------------|
-------------------|------------------|-----------------|-----------------|


--------------------|------------------|-----------------|----------------|
--9-----------------|---------------5--|--5----5----5----|--5--------3----|
--6-----------------|------------2-----|--3--------------|--3-------------|
--6-----------------|---------2--------|--3--------------|--3-------------|
--0-----------------|--0---------------|--0--------------|--0-------------|
-----------0--------|------------------|-----------------|----------------|


----------------|-----------------|-----------------|----------------|
--3----2--------|--------------2--|--2----2----2----|--2------0-2----|
--4----4--------|-----------2-----|--2--------------|--2-------------|
--3----2--------|--------2--------|--3--------------|--3-------------|
--0----0--------|-----------------|--0--------------|--0-------------|
----------------|-----------------|-----------------|----------------|


---------------|-----------------|-----------------|--3-------------|
---------------|--------------5--|--5----5----5----|--4--------5----|
--2------------|-----------2-----|--3--------------|--3-------------|
--2------------|--------2--------|--3--------------|--3-------------|
--4------------|-----------------|--0--------------|--0-------------|
--0------------|-----------------|-----------------|----------------|


----------------|-----------------|-----------------|---------------|
--4----4--------|-------4----4----|--3----5----6----|--8------------|
--4-------------|-------4---------|--3--------------|--7------------|
--4-------------|-------4---------|--3--------------|--8------------|
--0-------------|--0--------------|--0--------------|--7------------|
----------------|-----------------|-----------------|---------------|


---------------|--5------------||
--9------------|--5------------||
--7------------|--6------------||
--9------------|--7------------||
--8------------|--7------------||
--0------------|--5------------||

↓ Add and view comments below ↓

What do you think about this song and these tabs?

Add your comments, questions, rant or a thumbs up below.

Almost there ...

Sign in to get your own page with links to favourite songs and more. You are just one click away...

Login with Facebook Login with Google