Search tabs and chords

Search for song, artist or band

Log in

One click and you are in

Login with Facebook Login with Google

Why sign up and log in

Guitar Tabs Explorer
Wes Montgomery bass tabs for Four on six

Bass tabs with lyrics

Tuning: Standard (E A D G)

Key: Gm

Difficulty: Advanced

Four on Six - WES MONTGOMERY.
REAL BOOK BASS CLEF TRANSCRIPT.
PAGE 162.
TAB - EMEK KUZU

Intro:
4/4
G|-----------------------------------------------|
D|-------5---------5---------5---------5---------|
A|---5-3-------5-3-------5-3-------5-3-----------|
E|-3---------3---------3---------3---------------|

1.
G|--------5-----------------------------8---|
D|----5-3-----------8---------7-----8-6-----|
A|--3-----------8-6-------7-5-----6---------|
E|------------6---------5-------------------|

2. Amaj11 | D7#9
G|---------------|
D|---------------|
A|--1----------5-|
E|----3-4s\5-----|

Verse:
    Gmaj7         |        %        |         %          |         %
G|---------------------------------------------------------------------------|
D|----------------0--0-1-0------------------0--------5-----------------------|
A|--5--5--1--3--3------------1--3-----2--3-----3--3-----0--0-----------------|
E|---------------------------------3-----------------------------------------|

1.  Cmaj7 - F7#11   |   Bbmaj7 - E7#11  |  Amaj7 - D7#11  |  Ebmaj7 - A7#11
G|--------------------7-8-7-3-5---4--7-----5--5------------------------------|
D|------------------------------5----------------5---------------------------|
A|--0---2-----2-------------------------------------0--0------0--------------|
E|---------------------------------------------------------------------------|

2.  Amaj7          |   D7#11            |  D7  SOLO BREAK |        %         |
G|---------------------------------------------------------------------------|
D|----5-6s\7-----------0-----------------------------------------------------|
A|--1------------------------------------------------------------------------|
E|---------------------------------------------------------------------------|

Chord progressions.  Repeat or go your own way.  Have fun.
|  Gmaj7          |        /         |        /        |        /         |

1.
|  Cmaj7 - F7#11  |  Bbmaj7 - E7#11  |  Amaj7 - D7#11  |  Ebmaj7 - A7#11  |

2.
|  Amaj7          |  D7#11           |


************************************

| /   Slide up
| \   Slide down

************************************

Almost there ...

Sign in to get your own page with links to favourite songs and more. You are just one click away...

Login with Facebook Login with Google