Log in

One click and you are in

Login with Facebook Login with Google

Why sign up and log in

Guitar Tabs Explorer
Ricky Montgomery bass tabs for Line without a hook

Line Without A Hook bass tab by Ricky Montgomery

Ricky Montgomery bass tabs for Line without a hook

Bass tabs

Tuning: Standard (E A D G)


VERSE 1:
(I don't really give a damn about the way you)
 touch me
G|---------------------------------------------------------------------------|
D|---------------------------------------------------------------------------|
A|-----------------------4-4-4-4-4-4-6-6-6-6-6-6-----------------------------| x2
E|4-4-4-4-4-4-1-1-1-1-1-1----------------------------------------------------|

 bones
G|---------------------------------------------------------------------------|
D|6-6-6-6-6-6----------------------------------------------------------------|
A|------------8-8-8-8-8-8-4-4-4-4-4-4-6-6-6-6-6-6----------------------------|
E|---------------------------------------------------------------------------|

 curse
G|---------------------------------------------------------------------------|
D|---------------------------------------------------------------------------|
A|------------------------4-4-4-4-4-4-6-6-6-6-6-6----------------------------|
E|4-4-4-4-4-4-8-8-8-8-8-8----------------------------------------------------|


 all my emotions
G|---------------------------------------------------------------------------|
D|---------------------------------------------------------------------------|
A|------------------------4-4-4-4-4-4-6-6-6-6-6-6----------------------------| x2
E|4-4-4-------8-8-8----------------------------------------------------------|


CHORUS:
 oh baby
G|---------------------------------------------------------------------------|
D|6~----------3~-------------------------------------------------------------|
A|------------------------4~----------6~----4~-------------------------------|
E|---------------------------------------------------------------------------|

 stay                crying at the
G|---------------------------------------------------------------------------|
D|6~----------3~-------------------------------------------------------------|
A|------------------------4~----------6-6-6-6-6-6----------------------------|
E|---------------------------------------------------------------------------|

 lake
G|---------------------------------------------------------------------------|
D|---------------------------------------------------------------------------|
A|-----------------------4-4-4-4-4-4-6-6-6-6-6-6-----------------------------| x2
E|4-4-4-4-4-4-1-1-1-1-1-1----------------------------------------------------|

 tide                 oh whoa whoa whoa
G|---------------------------------------------------------------------------|
D|---------------------------------------------------------------------------|
A|-------------------------------------6-6-6-6-------------------------------|
E|4~----------4-4-4-4-4-4-1-1-1-1-1-1----------------------------------------|

VERSE 2:
 no
G|---------------------------------------------------------------------------|
D|---------------------------------------------------------------------------|
A|------------------------4-4-4-4-4-4-6-6-6-6-6-6----------------------------|
E|4-4-4-4-4-4-1-1-1-1-1-1----------------------------------------------------|

 wind
G|---------------------------------------------------------------------------|
D|---------------------------------------------------------------------------|
A|------------------------4-4-4-4-4-4-6-6-6-6-6-6----------------------------| x2
E|4-4-4-4-----1-1-1-1--------------------------------------------------------|


CHORUS:
 oh baby
G|---------------------------------------------------------------------------|
D|6-----6-----3-----3--------------------------------------------------------|
A|------------------------4-----4-----6-----4--------------------------------|
E|---------------------------------------------------------------------------|

                   crying at the
G|---------------------------------------------------------------------------|
D|6-----6-----3-----3--------------------------------------------------------|
A|------------------------4-----4-----6-6-6-6-6-6----------------------------|
E|---------------------------------------------------------------------------|

 lake
G|---------------------------------------------------------------------------|
D|---------------------------------------------------------------------------|
A|-----------------------4-4-4-4-4-4-6-6-6-6-6-6-----------------------------| x2
E|4-4-4-4-4-4-1-1-1-1-1-1----------------------------------------------------|

 t i d e
G|---------------------------------------------------------------------------|
D|8-8-8-8-8-8-10-10-10-5-5-5-------------------------------------------------|
A|---------------------------------------------------------------------------| x2
E|---------------------------------------------------------------------------|


BRIDGE:
 Darling
G|---------------------------------------------------------------------------|
D|8-8-8-8-8-8-10-10-10-5-5-5-------------------------------------------------|
A|---------------------------------------------------------------------------| x4
E|---------------------------------------------------------------------------|

G|---------------------------------------------------------------------------|
D|---------------------------------------------------------------------------|
A|-----------------------4-4-4-4-4-4-6-6-6-6-6-6-----------------------------|
E|4-4-4-4-4-4-1-1-1-1-1-1----------------------------------------------------|

G|---------------------------------------------------------------------------|
D|---------------------------------------------------------------------------|
A|-----------------------4-4-4-4-4-4-6-6-6-6---------------------------------|
E|4-4-4-4-4-4-1-1-1-1-1-1----------------------------------------------------|

 something
G|---------------------------------------------------------------------------|
D|6~----------3~-------------------------------------------------------------|
A|------------------------4~----------6~-------------------------------------| x2
E|---------------------------------------------------------------------------|

 she's a
G|---------------------------------------------------------------------------|
D|6-6-6-6-6-6-3-3-3-3-3-3----------------------------------------------------|
A|------------------------4-4-4-4-4-4-6-6-6-6-6-6----------------------------| softly
E|---------------------------------------------------------------------------|

G|---------------------------------------------------------------------------|
D|6-6-6-6-6-6-3-3-3-3-3-3----------------------------------------------------|
A|------------------------4-4-4-4-4-4-6-6-6-6-6-6----------------------------|
E|---------------------------------------------------------------------------|


CHORUS:
 oh baby
G|---------------------------------------------------------------------------|
D|---------------------------------------------------------------------------|
A|-----------------------4-4-4-4-4-4-6-6-6-6-6-6-----------------------------| x3
E|4-4-4-4-4-4-1-1-1-1-1-1----------------------------------------------------|

G|---------------------------------------------------------------------------|
D|---------------------------------------------------------------------------|
A|-----------------------4-4-4-4-4-4-6---4-----------------------------------|
E|4-4-4-4-4-4-1-1-1-1-1-1--------------------4-------------------------------|


************************************

| ~ Vibrato

************************************

Almost there ...

Sign in to get your own page with links to favourite songs and more. You are just one click away...

Login with Facebook Login with Google