Log in

One click and you are in

Login with Facebook Login with Google

Why sign up and log in

Guitar Tabs Explorer
Chris Montez bass tabs for Foolin around

Bass tabs

Tuning: Standard (E A D G)


Tuning: EADG

G|----------------------------------------------------------------|
D|----------------2---2-------2---0-----------0---2---2---4---2---| x2
A|0-----------0---------------------------------------------------|
E|----------------------------------------------------------------|

0:08

G|----------------------------------------------------------------|
D|7-----------7---6-----------6---5-----------5---4-----------4---|
A|----------------------------------------------------------------|
E|----------------------------------------------------------------|

G|----------------------------------------------------------------|
D|3-----------3---2-----------2-----------------------------------|
A|--------------------------------0-----------0---5-----------5---|
E|----------------------------------------------------------------|

G|----------------------------------------------------------------|
D|----------------6-----------6-------------------6-------6-------|
A|6-----------6-------------------6-----------6-------------------|
E|----------------------------------------------------------------|

G|----------------------------------------------------------------|
D|------------------------------------------------2-----------2---|
A|4-----------4---4-----------4---2-----------2-------------------|
E|----------------------------------------------------------------|

0:24

G|----------------------------------------------------------------|
D|7-----------7---6-----------6---5-----------5---4-----------4---|
A|----------------------------------------------------------------|
E|----------------------------------------------------------------|

G|----------------------------------------------------------------|
D|3-----------3---2-----------2-----------------------------------|
A|--------------------------------0-----------0---5-----------5---|
E|----------------------------------------------------------------|

G|----------------------------------------------------------------|
D|----------------6-----------6-------------------6-------6-------|
A|6-----------6-------------------6-----------6-------------------|
E|----------------------------------------------------------------|

G|----------------------------------------------------------------|
D|----------------------------------------------------------------|
A|4-----------4---4-----------4---4-----------4---4-----------4---|
E|----------------------------------------------------------------|

0:40

G|----------------------------------------------------------------|
D|------------------------------------------------4-----------4---|
A|4-----------4---3-----------3---4-----------4-------------------|
E|----------------------------------------------------------------|

G|----------------------------------------------------------------|
D|----------------4-----------4-----------------------------------|
A|2-----------2-------------------2-----------2---2-----------2---|
E|----------------------------------------------------------------|

G|----------------------------------------------------------------|
D|----------------2-----------2-----------------------------------|
A|2-----------2-------------------0-----------0---5-----------5---|
E|----------------------------------------------------------------|

G|----------------------------------------------------------------|
D|5-----------5---5-----------4---2-----------2---2-----------2---|
A|----------------------------------------------------------------|
E|----------------------------------------------------------------|

0:56

G|----------------------------------------------------------------|
D|7-----------7---6-----------6---5-----------5---4-----------4---|
A|----------------------------------------------------------------|
E|----------------------------------------------------------------|

G|----------------------------------------------------------------|
D|3-----------3---2-------------------------------4-----------4---|
A|------------------------5-------4-----------4-------------------|
E|----------------------------------------------------------------|

G|----------------------------------------------------------------|
D|----------------2-----------2-------------------4-----------4---|
A|2-----------2-------------------4-----------4-------------------|
E|----------------------------------------------------------------|

G|--------------------------------|
D|----------------2-----------2---|
A|2-----------2-------------------|
E|--------------------------------|

G|----------------------------------------------------------------|
D|----------------2---2-------2-------------------3---3---5---3---|
A|0-----------0-------------------3-----------3-------------------|
E|----------------------------------------------------------------|

1:14

G|----------------------------------------------------------------|
D|8-----------8---7-----------7---6-----------6---5-----------5---|
A|----------------------------------------------------------------|
E|----------------------------------------------------------------|

G|----------------------------------------------------------------|
D|4-----------4---3-----------3-----------------------------------|
A|--------------------------------1-----------1---6-----------6---|
E|----------------------------------------------------------------|

G|----------------------------------------------------------------|
D|----------------7-----------7-------------------7-----------7---|
A|7-----------7-------------------7-----------7-------------------|
E|----------------------------------------------------------------|

G|----------------------------------------------------------------|
D|------------7-------------------------------7-------------------|
A|5---------------5-----------5---5---------------5-----------5---|
E|----------------------------------------------------------------|

1:29

G|----------------------------------------------------------------|
D|------------------------------------------------5-----------5---|
A|5-----------5---5-----------5---5-----------5-------------------|
E|----------------------------------------------------------------|

G|----------------------------------------------------------------|
D|------------------------5---------------------------------------|
A|3-----------3---5---------------3-----------3---3-----------3---|
E|----------------------------------------------------------------|

G|----------------------------------------------------------------|
D|----------------3-----------3-----------------------------------|
A|3-----------3-------------------1-----------1---6-----------6---|
E|----------------------------------------------------------------|

G|----------------------------------------------------------------|
D|6-----------6---6-------6-------3-----------3---3-----------3---|
A|----------------------------------------------------------------|
E|----------------------------------------------------------------|

1:45

G|----------------------------------------------------------------|
D|8-----------8---7-----------7---6-----------6---5-----------5---|
A|----------------------------------------------------------------|
E|----------------------------------------------------------------|

G|----------------------------------------------------------------|
D|4-----------4---3-------------------------------5-----------5---|
A|------------------------6-------5-----------5-------------------|
E|----------------------------------------------------------------|

G|----------------------------------------------------------------|
D|----------------3-----------3-------------------5-----------5---|
A|3-----------3-------------------5-----------5-------------------|
E|----------------------------------------------------------------|

G|--------------------------------|
D|----------------3-----------3---|
A|3-----------3-------------------|
E|--------------------------------|

1:59 Until fadeout.

G|----------------------------------------------------------------|
D|----------------3---3-------3---1-----------1---3---3-------3---|
A|1-----------1---------------------------------------------------|
E|----------------------------------------------------------------|

Almost there ...

Sign in to get your own page with links to favourite songs and more. You are just one click away...

Login with Facebook Login with Google