Log in

One click and you are in

Login with Facebook Login with Google

Why sign up and log in

Guitar Tabs Explorer
Hannah Montana bass tabs for The best of both worlds

The Best Of Both Worlds bass tab by Hannah Montana

Hannah Montana bass tabs for The best of both worlds

Bass tabs with lyrics

Tuning: Standard (E A D G)


Intro:

G|---------------------------------------------------------------------------|
D|---------------------------------------------------------------------------|
A|-5-5-----2---5-5-----2-----------------------------------------------------|
E|-----5-5---3-----5-5---3-3-3-3---------------------------------------------|
Verse 1:

You get the limo out front
G|---------------------------------------------------------------------------|
D|---------------------------------------------------------------------------|
A|-5-5-----2-2---------------------------------------------------------------|
E|-----5-5-----3-3-----------------------------------------------------------|

Hottest styles, every shoe, every color
G|---------------------------------------------------------------------------|
D|---------------------------------------------------------------------------|
A|-5-5-----2-2---------------------------------------------------------------|
E|-----5-5-----3-3-----------------------------------------------------------|

Yeah, when you're famous it can be kinda fun
G|---------------------------------------------------------------------------|
D|---------------------------------------------------------------------------|
A|-5-5-----2-2---------------------------------------------------------------|
E|-----5-5-----3-3-----------------------------------------------------------|

It's really you but no one ever discovers
G|---------------------------------------------------------------------------|
D|---------------------------------------------------------------------------|
A|-5-5-----2-2---------------------------------------------------------------|
E|-----5-5-----3-3-----------------------------------------------------------|

Bridge 1:

 In some ways you're just like all your friend but on stage you're a star
G|---------------------------------------------------------------------------|
D|---------------------------------------------------------------------------|
A|-2-2-2--3-3-3--2-2-2-------------------------------------------------------|
E|----------------------3-3-3------------------------------------------------|


Chorus:

You get the best of both worlds
G|---------------------------------------------------------------------------|
D|---------------------------------------------------------------------------|
A|-5-5-----2-2---------------------------------------------------------------|
E|-----5-5-----3-3-----------------------------------------------------------|

Chill it out, take it slow then you rock out the show
G|---------------------------------------------------------------------------|
D|---------------------------------------------------------------------------|
A|-5-5-----2-2---------------------------------------------------------------|
E|-----5-5-----3-3-----------------------------------------------------------|

You get the best of both worlds
G|---------------------------------------------------------------------------|
D|---------------------------------------------------------------------------|
A|-5-5-----2-2---------------------------------------------------------------|
E|-----5-5-----3-3-----------------------------------------------------------|

 Mix it all together and you know that it's the best of both worlds
G|---------------------------------------------------------------------------|
D|---------------------------------------------------------------------------|
A|-2-2-----5-5-----2-2-------------------------------------------------------|
E|-----3-3-----5-5-----3-3---------------------------------------------------|

 The best of both worlds
G|---------------------------------------------------------------------------|
D|---------------------------------------------------------------------------|
A|-5-5-----2-2---------------------------------------------------------------|
E|-----5-5-----3-3-----------------------------------------------------------|


Verse 2:

You go to movie premieres (is that Orlando Bloom)
G|---------------------------------------------------------------------------|
D|---------------------------------------------------------------------------|
A|-5-5-----2-2---------------------------------------------------------------|
E|-----5-5-----3-3-----------------------------------------------------------|

Hear your songs on the radio
G|---------------------------------------------------------------------------|
D|---------------------------------------------------------------------------|
A|-5-5-----2-2---------------------------------------------------------------|
E|-----5-5-----3-3-----------------------------------------------------------|

Livin' two lives is a little weird   (yeah)
G|---------------------------------------------------------------------------|
D|---------------------------------------------------------------------------|
A|-5-5-----2-2---------------------------------------------------------------|
E|-----5-5-----3-3-----------------------------------------------------------|

But school's cool cuz nobody knows
G|---------------------------------------------------------------------------|
D|---------------------------------------------------------------------------|
A|-5-5-----2-2---------------------------------------------------------------|
E|-----5-5-----3-3-----------------------------------------------------------|


Bridge 2:

 You get to be a small town girl but big time when you play your guitar
G|---------------------------------------------------------------------------|
D|---------------------------------------------------------------------------|
A|-2-2-2--3-3-3--2-2-2-------------------------------------------------------|
E|----------------------3-3-3------------------------------------------------|


Chorus:

You get the best of both worlds
G|---------------------------------------------------------------------------|
D|---------------------------------------------------------------------------|
A|-5-5-----2-2---------------------------------------------------------------|
E|-----5-5-----3-3-----------------------------------------------------------|

Chill it out, take it slow then you rock out the show
G|---------------------------------------------------------------------------|
D|---------------------------------------------------------------------------|
A|-5-5-----2-2---------------------------------------------------------------|
E|-----5-5-----3-3-----------------------------------------------------------|

You get the best of both worlds
G|---------------------------------------------------------------------------|
D|---------------------------------------------------------------------------|
A|-5-5-----2-2---------------------------------------------------------------|
E|-----5-5-----3-3-----------------------------------------------------------|

 Mix it all together and you know that it's the best of both worlds
G|---------------------------------------------------------------------------|
D|---------------------------------------------------------------------------|
A|-2-2-----5-5-----2-2-------------------------------------------------------|
E|-----3-3-----5-5-----3-3---------------------------------------------------|

 The best of both worlds
G|---------------------------------------------------------------------------|
D|---------------------------------------------------------------------------|
A|-5-5-----2-2---------------------------------------------------------------|
E|-----5-5-----3-3-----------------------------------------------------------|

 Pictures and autographs you get your face in all the magazines
G|---------------------------------------------------------------------------|
D|---------------------------------------------------------------------------|
A|-2-2--3-3--2-2--3-3--------------------------------------------------------|
E|---------------------------------------------------------------------------|

     A
 The best part is that you get to be who ever you wanna be
G|---------------------------------------------------------------------------|
D|---------------------------------------------------------------------------|
A|-2-2-------------------------------------------------------------------------|
E|-----5-5---------------------------------------------------------------------|

    Yeah the best of both
G|---------------------------------------------------------------------------|
D|---------------------------------------------------------------------------|
A|-5-5-----2-2---------------------------------------------------------------|
E|-----5-5-----3-3-----------------------------------------------------------|

    You get the best of both
G|---------------------------------------------------------------------------|
D|---------------------------------------------------------------------------|
A|-5-5-----2-2---------------------------------------------------------------|
E|-----5-5-----3-3-----------------------------------------------------------|

    Come on best of both
G|---------------------------------------------------------------------------|
D|---------------------------------------------------------------------------|
A|-5-5-----2-2---------------------------------------------------------------|
E|-----5-5-----3-3-----------------------------------------------------------|


Bridge 3:

 Who would've thought that a girl like me would double as a superstar
G|---------------------------------------------------------------------------|
D|---------------------------------------------------------------------------|
A|-2-2-2--3-3-3--2-2-2-------------------------------------------------------|
E|----------------------3-3-3------------------------------------------------|


Chorus: x2

You get the best of both worlds
G|---------------------------------------------------------------------------|
D|---------------------------------------------------------------------------|
A|-5-5-----2-2---------------------------------------------------------------|
E|-----5-5-----3-3-----------------------------------------------------------|

Chill it out, take it slow then you rock out the show
G|---------------------------------------------------------------------------|
D|---------------------------------------------------------------------------|
A|-5-5-----2-2---------------------------------------------------------------|
E|-----5-5-----3-3-----------------------------------------------------------|

You get the best of both worlds
G|---------------------------------------------------------------------------|
D|---------------------------------------------------------------------------|
A|-5-5-----2-2---------------------------------------------------------------|
E|-----5-5-----3-3-----------------------------------------------------------|

 Mix it all together and you know that it's the best of both worlds
G|---------------------------------------------------------------------------|
D|---------------------------------------------------------------------------|
A|-2-2-----5-5-----2-2-------------------------------------------------------|
E|-----3-3-----5-5-----3-3---------------------------------------------------|

 The best of both worlds
G|---------------------------------------------------------------------------|
D|---------------------------------------------------------------------------|
A|-5-5-----2-2---------------------------------------------------------------|
E|-----5-5-----3-3-----------------------------------------------------------|

Almost there ...

Sign in to get your own page with links to favourite songs and more. You are just one click away...

Login with Facebook Login with Google