Log in

One click and you are in

Login with Facebook Login with Google

Why sign up and log in

Guitar Tabs Explorer
Monster Magnet tabs for Your lies become you

Guitar tabs

song:your lies become you
band:monster magnet
album:powertrip
tabbed by: joel (j_sorensson@hotmail.com)

(tune down 1/2)

As usual I won't type out the number of times you play each riff, but
if you listen to the CD you'll probably get it. The first time you play the

chorus, skip the second bit.
Verse riff:
eb-------0-------------------------------
bb---------1-------3---------------------
gb-----2---------2---2-------------------
db---2---------2-------------------------
ab-0---------0---------------------------
eb---------------------0------03030--030-


Chorus:
eb------------------------5-------------------------5--
bb------------------------5-------------------------5--
gb----4-5-7-5--4-5-4------5----4-5-7-9-7-5-4-5-4----5--
db--7----------------7-7--7--7-------------------7--7--
ab-----------------------------------------------------
eb-----------------------------------------------------

eb----------------------
bb----------------------
gb---4-5-7-9-7-5--4-5-4-
db-7--------------------
ab----------------------
eb----------------------

eb---------------------  ----
bb-------1---------3---  -1--
gb-----2---2-----2---2-  -2--
db---2---------2-------  -2--
ab-0---------0---------  -0--
eb---------------------  ----


Verse variation:
eb--------------------------------
bb--------------------------------
gb--------------------------------
db--------harm.-------------------
ab---------<5>----7---------------
eb-0305-----------------3030--030-


.ok, last one. I've tabbed every song on powertrip.
comments? questions? corrections? pics of cheese?
mail me.

Almost there ...

Sign in to get your own page with links to favourite songs and more. You are just one click away...

Login with Facebook Login with Google