Log in

One click and you are in

Login with Facebook Login with Google

Why sign up and log in

Guitar Tabs Explorer
Monster Magnet chords for Temple of your dreams

Guitar chords

song:temple of your dreams
band:monster magnet
album:powertrip
tabbed by: joel (j_sorensson@hotmail.com)

(tune down 1/2)
main riff:                      variation:
eb--------------------------   -------------------------
bb--------------------------   -------------------------
gb--------------------------   -------------------------
db--------------------7--7--   ----------------------7--
ab-9--9-9-7-7--9--9-9-------   -9--------7--9-----------
eb--------------------------   -------------------------

bass riff (guitar plays sometime in the beginning)
eb-----------------
bb-----------------
gb-----------------
db-----------------
ab-----0-2h3-2-0---
eb---2-------------


chorus:
eb-------------------------------------
bb-------------------------------------
gb-11--11-11--9--9--11--11-11--14--14--
db-11--11-11--9--9--11--11-11--14--14--
ab--9---9--9--7--7---9---9--9--12--12--
eb-------------------------------------


bridge:
eb-----------------
bb-----------------
gb-----------------
db-----------------
ab-----4-4-----2---
eb-0-0-----0-0-----

.no too hard. comments? questions? corrections? pics of cheese?
mail me.

Other versions of Temple Of Your Dreams

Temple of your dreamsTabs

Almost there ...

Sign in to get your own page with links to favourite songs and more. You are just one click away...

Login with Facebook Login with Google