Log in

One click and you are in

Login with Facebook Login with Google

Why sign up and log in

Guitar Tabs Explorer
Monster Magnet bass tabs for Spacelord

Bass tabs

song: spacelord
band: monster magnet
album: powertrip
tabbed by: joel (j_sorensson@hotmail.com)

You know the rythm.

(tune 1/2 down)
verse:
gb-----------------------------
db-----------------------------
ab---------7-97------------9-7-
eb-9-9-7-9-----97-9-9-7-9------

"aaah" part:
gb----------------
db----------------
ab----------------
eb-9-9-9-9-9-9-99-


chorus:
gb----------------
db---------------- It's possible he uses the verse ting,
ab-----------7---- but I don't think so.
eb-9-9-7-9-9---7--

.doin' it well. comments? corrections? questions? pics of cheese?
mail me.

Almost there ...

Sign in to get your own page with links to favourite songs and more. You are just one click away...

Login with Facebook Login with Google