GuitarTabsExplorer icon
GuitarTabsExplorer icon

Log in

Songbook

  • Log in to add and see bookmarks

Last visited songs

  • No songs visited yet...
Space Lord by Monster Magnet

Space Lord bass tab by Monster Magnet

Bass tabs

SPACE LORD MOTHER (Bassline)



Transcribed by Gary Ramsey




Gtr I (G) - 'Staff'


 Q=95
 4/4
 Gtr I
 W     W     W     W
|----------|----------|----------|------|
|----------|----------|----------|------|
|----------|----------|----------|------|
|----------|----------|----------|------|
 W     W     W     W
|----------|----------|----------|------|
|----------|----------|----------|------|
|----------|----------|----------|------|
|----------|----------|----------|------|


 W     W     W     W
|----------|----------|----------|------|
|----------|----------|----------|------|
|----------|----------|----------|------|
|----------|----------|----------|------|


 W     W     W     W
|----------|----------|----------|------|
|----------|----------|----------|------|
|----------|----------|----------|------|
|----------|----------|----------|------|


 E
|--------------------|------------------|
|--------------------|------------3-1-1-|
|-3--3-1-3---3-3-1---|-3--3-1-3---------|
|------------------3-|------------------|
 E
|--------------------|------------------|
|--------------------|------------3-1-1-|
|-3--3-1-3---3-3-1---|-3--3-1-3---------|
|------------------3-|------------------|


 E
|--------------------|------------------|
|--------------------|------------3-1-1-|
|-3--3-1-3---3-3-1---|-3--3-1-3---------|
|------------------3-|------------------|


 E
|--------------------|------------------|
|--------------------|------------3-1-1-|
|-3--3-1-3---3-3-1---|-3--3-1-3---------|
|------------------3-|------------------|


 E
|--------------------|------------------|
|--------------------|------------3-1-1-|
|-3--3-1-3---3-3-1---|-3--3-1-3---------|
|------------------3-|------------------|


 E
|--------------------|------------------|
|--------------------|------------3-1-1-|
|-3--3-1-3---3-3-1---|-3--3-1-3---------|
|------------------3-|------------------|


 E S S
|---------------------|---------------------|
|---------------------|---------------------|
|---------------------|---------------------|
|-1-1-1-1-(1)-1-1-1-1-|-1-1-1-1-(1)-1-1-1-1-|


 E
|---------------------|------------------|
|---------------------|------------------|
|---------------------|------------------|
|-1-1-1-1-(1)-1-1-1-1-|-1-1-1-1-1-1-1-1--|


 E
|--------------------|------------------|
|--------------------|------------3-1-1-|
|-3--3-1-3---3-3-1---|-3--3-1-3---------|
|------------------3-|------------------|


 E
|--------------------|------------------|
|--------------------|------------3-1-1-|
|-3--3-1-3---3-3-1---|-3--3-1-3---------|
|------------------3-|------------------|


 E
|---------------------|---------------------|---------------------|
|-------------1-------|-------------1-------|-------------1-------|
|-3-3-0-1-3-----1---1-|-3-3-0-1-3-----1---1-|-3-3-0-1-3-----1---1-|
|---------------------|---------------------|---------------------|


 E
|---------------------|---------------------|---------------------|
|-------------1-------|-------------1-------|-------------1-------|
|-3-3-0-1-3-----1---1-|-3-3-0-1-3-----1---1-|-3-3-0-1-3-----1---1-|
|---------------------|---------------------|---------------------|


 H
|---------------------|---------------------|-------------|-------------|
|-------------1-------|-------------1-------|-------------|-------------|
|-3-3-0-1-3-----1---1-|-3-3-0-1-3-----1---1-|-3-----------|-3-----------|
|---------------------|---------------------|-------------|-------------|


 H
|-------------|-------------|-------------|-------------|
|-------------|-------------|-------------|-------------|
|-3-----------|-3-----------|-3-----------|-3-----------|
|-------------|-------------|-------------|-------------|


 E S S
|-------------|-------------|---------------------|---------------------|
|-------------|-------------|---------------------|---------------------|
|-3-----------|-3-----------|---------------------|---------------------|
|-------------|-------------|-1-1-1-1-(1)-1-1-1-1-|-1-1-1-1-(1)-1-1-1-1-|


 E
|---------------------|-----------------|
|---------------------|-----------------|
|---------------------|-----------------|
|-1-1-1-1-(1)-1-1-1-1-|-1-1-1-1-1-1-1-1-|


 E
|--------------------|------------------|
|--------------------|------------3-1-1-|
|-3--3-1-3---3-3-1---|-3--3-1-3---------|
|------------------3-|------------------|


 E
|--------------------|------------------|
|--------------------|------------3-1-1-|
|-3--3-1-3---3-3-1---|-3--3-1-3---------|
|------------------3-|------------------|


 E
|---------------------|----------------------|
|-------------1-------|-------------1--------|
|-3-3-0-1-3-----1---1-|-3-3-0-1-3-----1---1--|
|---------------------|----------------------|


 E
|---------------------|---------------------|---------------------|
|-------------1-------|-------------1-------|-------------1-------|
|-3-3-0-1-3-----1---1-|-3-3-0-1-3-----1---1-|-3-3-0-1-3-----1---1-|
|---------------------|---------------------|---------------------|


 E
|---------------------|---------------------|---------------------|
|-------------1-------|-------------1-------|-------------1-------|
|-3-3-0-1-3-----1---1-|-3-3-0-1-3-----1---1-|-3-3-0-1-3-----1---1-|
|---------------------|---------------------|---------------------|


 E
|---------------------|---------------------|---------------------|
|-------------1-------|-------------1-------|-------------1-------|
|-3-3-0-1-3-----1---1-|-3-3-0-1-3-----1---1-|-3-3-0-1-3-----1---1-|
|---------------------|---------------------|---------------------|


 E
|---------------------|---------------------|---------------------|
|-------------1-------|-------------1-------|-------------1-------|
|-3-3-0-1-3-----1---1-|-3-3-0-1-3-----1---1-|-3-3-0-1-3-----1---1-|
|---------------------|---------------------|---------------------|


 E
|---------------------|---------------------|
|-------------1-------|-------------1-------|
|-3-3-0-1-3-----1---1-|-3-3-0-1-3-----1---1-|
|---------------------|---------------------|


 E
|------------------|------------------|
|------------------|------------------|
|-3----(3)-3-(3)-3-|------------------|
|------------------|-4----(4)-4-(4)-4-|


 E
|------------------|------------------|------------------|------------------|
|------------------|------------------|------------------|------------------|
|-3----(3)-3-(3)-3-|------------------|-3----(3)-3-(3)-3-|------------------|
|------------------|-4----(4)-4-(4)-4-|------------------|-4----(4)-4-(4)-4-|


 E
|------------------|------------------|------------------|------------------|
|------------------|------------------|------------------|------------------|
|-3----(3)-3-(3)-3-|------------------|-3----(3)-3-(3)-3-|------------------|
|------------------|-4----(4)-4-(4)-4-|------------------|-4----(4)-4-(4)-4-|


 E
|------------------|------------------|------------------|------------------|
|------------------|------------------|------------------|------------------|
|-3----(3)-3-(3)-3-|------------------|-3----(3)-3-(3)-3-|------------------|
|------------------|-4----(4)-4-(4)-4-|------------------|-4----(4)-4-(4)-4-|


 E
|------------------|------------------|
|------------------|------------------|
|-3----(3)-3-(3)-3-|------------------|
|------------------|-4----(4)-4-(4)-4-|


 E
|---------------------|---------------------|
|-------------1-------|-------------1-------|
|-3-3-0-1-3-----1---1-|-3-3-0-1-3-----1---1-|
|---------------------|---------------------|


 E
|---------------------|---------------------|---------------------|
|-------------1-------|-------------1-------|-------------1-------|
|-3-3-0-1-3-----1---1-|-3-3-0-1-3-----1---1-|-3-3-0-1-3-----1---1-|
|---------------------|---------------------|---------------------|


 E
|---------------------|---------------------|---------------------|
|-------------1-------|-------------1-------|-------------1-------|
|-3-3-0-1-3-----1---1-|-3-3-0-1-3-----1---1-|-3-3-0-1-3-----1---1-|
|---------------------|---------------------|---------------------|


 E
|---------------------|---------------------|---------------------|
|-------------1-------|-------------1-------|-------------1-------|
|-3-3-0-1-3-----1---1-|-3-3-0-1-3-----1---1-|-3-3-0-1-3-----1---1-|
|---------------------|---------------------|---------------------|


 E
|---------------------|---------------------|---------------------|
|-------------1-------|-------------1-------|-------------1-------|
|-3-3-0-1-3-----1---1-|-3-3-0-1-3-----1---1-|-3-3-0-1-3-----1---1-|
|---------------------|---------------------|---------------------|


 E
|---------------------|---------------------|---------------------|
|-------------1-------|-------------1-------|-------------1-------|
|-3-3-0-1-3-----1---1-|-3-3-0-1-3-----1---1-|-3-3-0-1-3-----1---1-|
|---------------------|---------------------|---------------------|


 E
|---------------------|---------------------|---------------------|
|-------------1-------|-------------1-------|-------------1-------|
|-3-3-0-1-3-----1---1-|-3-3-0-1-3-----1---1-|-3-3-0-1-3-----1---1-|
|---------------------|---------------------|---------------------|


 E
|---------------------|---------------------|---------------------|
|-------------1-------|-------------1-------|-------------1-------|
|-3-3-0-1-3-----1---1-|-3-3-0-1-3-----1---1-|-3-3-0-1-3-----1---1-|
|---------------------|---------------------|---------------------|


 E
|---------------------|-----------------|-----------------|-----------------|
|-------------1-------|-----------------|-----------------|-----------------|
|-3-3-0-1-3-----1---1-|-3-3-3-3-3-3-3-3-|-3-3-3-3-3-3-3-3-|-3-3-3-3-3-3-3-3-|
|---------------------|-----------------|-----------------|-----------------|


 E
|-----------------|-----------------|-----------------|-----------------|
|-----------------|-----------------|-----------------|-----------------|
|-3-3-3-3-3-3-3-3-|-3-3-3-3-3-3-3-3-|-3-3-3-3-3-3-3-3-|-3-3-3-3-3-3-3-3-|
|-----------------|-----------------|-----------------|-----------------|


 E
|--------------------*|
|--------------------*|
|-3-3-3-3-3-3-3-3----*|
|--------------------*|



--------------------------------------------------------------------------------


Duration 🏷Legend
---------------
W - whole; H - half; Q - quarter; E - 8th; S - 16th; T - 32nd; X - 64th; a - acciaccatura
+ - note tied to previous; . - note dotted; .. - note double dotted
Uncapitalized letters represent notes that are staccato (1/2 duration)
Irregular groupings are notated above the duration line
Duration letters will always appear directly above the note/fret number it represents the
duration for. Duration letters with no fret number below them represent rests. Multi-
bar rests are notated in the form Wxn, where n is the number of bars to rest for. Low
melody durations appear below the staff

Tablature 🏷Legend
----------------
 h  - hammer-on
 p  - pull-off
 b  - bend
 pb - pre-bend
 r  - bend release (if no number after the r, then release immediately)
 /\ - slide into or out of (from/to "nowhere")
 s  - legato slide
 S  - shift slide
 - natural harmonic
[n] - artificial harmonic
n(n) - tapped harmonic
 ~  - vibrato
 tr - trill
 T  - tap
 TP - trem. picking
 PM - palm muting
\n/ - tremolo bar dip; n = amount to dip
 \n - tremolo bar down
 n/ - tremolo bar up
/n\ - tremolo bar inverted dip
 =  - hold bend; also acts as connecting device for hammers/pulls
 - volume swell (louder/softer)
 x  - on rhythm slash represents muted slash
 o  - on rhythm slash represents single note slash

Misc 🏷Legend
-----------
 | - bar
|| - double bar
||o - repeat start
o|| - repeat end
*| - double bar (ending)
 : - bar (freetime)
 $ - Segno
 & - Coda
Tempo markers - = BPM(8/16=s8/s16), where s8 = swing 8ths, s16 = swing 16ths


--------------------------------------------------------------------------------

** Generated using Power Tab Editor by Brad Larsen: The Official Power Tab Web Site

[ Privacy | About us ]

Welcome to the guitar community

Why join and log in?
- Get songbook with favourite songs
- Get custom made front page
- Submit chords and tabs
- Submit guitar-cover videos
- Get a lot of thumbs up for your work

Songbook

Last visited songs

Site
Home
Search
Community
Submit chords

Video

No video for this page. Check out how you can submit guitar-cover videos here

Search tabs and chords

Browse by artist

A B C D E F G H I J K L M N O P Q R S T U V W X Y Z #


Menu

Search

Video

Bookmark

Login