Log in

One click and you are in

Login with Facebook Login with Google

Why sign up and log in

Guitar Tabs Explorer
Monster Magnet tabs for Nod scene

Guitar tabs

Monster Magnet - Nod Scene (spine of god)
~~~~~~~~~~~~~~~~~~~~~~~~~~~~~~~~~~~~~~~~~
e-mail: 9250128@bn.fnt.hvu.nl   (Bazzy)

Looks like these guys can only write great songs, but ofcourse
that's because of the drugs... **** all who say drugs are bad...
**** you.. smoke weed, get stoned!

Now the tab below isn't very exact for what timing concerns, but it
is the right way to play it! (i think) so listen to the cd for timing

We saw them live at the (A chord diagramBB)Low lands festival in holland....THEY RULED
Dave we get your message.. we love you
---------------------------------------------------------------------
After they take some good sucks from a pipe, the guitar starts with:
Intro:
e:-------|             |------------------
b:----5--| repeat this |---5--5-----5--x--
g:----6--| a couple of |---6--6--6--6--x--
d:-6--6--| times       |-6-6--6--6--6--x--
a:-4-----|             |-4-------4-----x--
E:-4-----|             |-4----------------

This next part is played twice:  (part A chord diagramA augmentedA)

e ------------------------------------------------------
b -----------------------------------9--9--9------------
g --11-11-----9h11--9----------------9--9--9------------
d --11-11---9-9h11--9-11p9h11--11-11-11-11-11-----------
a ---9--9---9-9-----9-11p9h11--11-11-^ ^ ^--------------
A chord diagramE MajorE ---------------------9--------9--9-     --------------
                                ^  ^  listen to the cd for the strum...
                                      (strum more than it reads)
e-------------------------------------------------------
b -------------9h11--9--------------9--9--9-------------
g -11-11-11--9-9h11--9--------------9--9--9-------------
d -11-11-11--9-9-----9--9h11--11-11-11-11-11------------
a -9---9--9-------------9h11--11-11-^ ^ ^---------------
A chord diagramE MajorE ----------------------9------9--9-     ---------------
                             ^  ^ again listen for strum

e ------------------------------------------------>
b ------------------------------------------------>
g -------------------------11-11-11-11-11-11-11--->
d -4-4-4-4-4-4-4-4-4-4-4-4-11-11-11-11-11-11-11--->
a -4-4-4-4-4-4-4-4-4-4-4-4--9--9--9--9--9--9--9--->
A chord diagramE MajorE -2-2-2-2-2-2-2-2-2-2-2-2------------------------>
   ^ ^ ^ ^ ^ ^ ^ ^ ^ ^ ^ ^aprox 16 x

e >-------------------------------------
b >-------------------------------------
g >-11-11-11\9-9-9-9-9-11\9-9-9-9-9-9---
d >-11-11-11\9-9-9-9-9-11\9-9-9-9-9-9---
a >--9--9--9\7-7-7-7-7--9\7-7-7-7-7-7---
A chord diagramE MajorE >-------------------------------------

okay now for the really cool part kick in your wah wah

e --------------------------------------------------------
b --------------------------------------------------------
g -4--/6-6-6-6-6-6--4--/6-6-6-6-6-6--4--/6-6-6-6-6-6-6-6--
d -4--/6-6-6-6-6-6--4--/6-6-6-6-6-6--4--/6-6-6-6-6-6-6-6-7
a -2--/4-4-4-4-4-4--2--/4-4-4-4-4-4--2--/4-4-4-4-4-4-4-4-7
A chord diagramE MajorE -------------------------------------------------------5
                   okay this is where the lyrics start  ^

 then it goes into the more relaxed part that is just like the
 beginning only with some slight variations (part A chord diagramA augmentedA)
 That part keeps being played until he sings:

> crash down the ...

 The following part is played:  (part A chord diagramBB)
e ----------------------------------------------------------------------
b ----------------------------------------------------------------------
g -4--/6-6-6-6-6-6--4--/6-6-6-6-6-6--4--/6-6-6-6-6-6-6-6----------------
d -4--/6-6-6-6-6-6--4--/6-6-6-6-6-6--4--/6-6-6-6-6-6-6-6-7-7-7-7-7(7)----
a -2--/4-4-4-4-4-4--2--/4-4-4-4-4-4--2--/4-4-4-4-4-4-4-4-7-7-7-7-7(7)----
A chord diagramE MajorE -------------------------------------------------------5-5-5-5-5(5)----
He plays the above part two times only the second time he let's    ^     ring
                                                                this part
during the following lyrics:

>15 miles to cop on a .....(now part A chord diagramA augmentedA is being repeated)
>
Play Part A chord diagramBB (lots a wah wah) (with solo over it)
    -lots a nois

Then go into part A chord diagramA augmentedA again

>Bought another .....
>Seeds were bustin' up ...
>I think I wet my pants ...
>Not too many ...
>Sit me in the lap of ...
>Cover me with skin ...
>Ride a number one ....
>Screw you if you think i can't...........(part A chord diagramBB)........SMOKE   (smoke dope  get high)

Contact us if you smoke
Cazy, Baz


SIN's A chord diagramA augmentedA GOOD MAN's BROTHER - Dave!

e-mail 9250128@bn.fnt.hvu.nl

Almost there ...

Sign in to get your own page with links to favourite songs and more. You are just one click away...

Login with Facebook Login with Google