Log in

One click and you are in

Login with Facebook Login with Google

Why sign up and log in

Guitar Tabs Explorer
Monster Magnet tabs for Master of light

Guitar tabs with lyrics

Heres where guitar comes in (00:25-00:33)
(Guitar 1)
|----------------------------------|
|----------------------------------|
|----------------------------------|
|---7-5-7~--7-5~--7-5-7~8b-7-5h7-7-|
|-7-------7-----7------------------|
|----------------------------------|

Guitar 2 (volume swell in and out)(00:33-00:55)
|-------------------------------------|
|-------------------------------------|
|-------------------------------------|
|-2-4-4-4-44444-4-4-2-4-4-4-44444-4-4-|just go till 00:55
|-2-4-4-4-44444-4-4-2-4-4-4-44444-4-4-|
|-0-2-2-2-22222-2-2-0-2-2-2-22222-2-2-|

(00:46-00:55)
Guitar 1
|-----------------------------------------|
|-----------------------------------------|
|-----------------------------------------|
|-----------------------------------------|
|-2br-2br-2br-2br-2br-2br-2br-2br-2br-2br-|
|-----------------------------------------|
"Its insane,    Its insane,    Its insane!"

Guitar 3 (00:46-00:55)
|-----------------------------------------|
|-----------------------------------------|
|-----------------------------------------|
|---------------------2br-2br-2br-2br-2br-|
|-----------------------------------------|
|-----------------------------------------|

Guitar 1 (00:55-01:19)
|----------------------------------------|
|----------------------------------------|
|-12/17171717-15-14-12/17171717-15-14-12-|
|----------------------------------------|x6
|----------------------------------------|
|----------------------------------------|

guitar 2 (00:55-01:19)
|-------------------------------------|
|-------------------------------------|
|-------------------------------------|
|-2-4-4-4-44444-4-4-2-4-4-4-44444-4-4-|
|-2-4-4-4-44444-4-4-2-4-4-4-44444-4-4-|
|-0-2-2-2-22222-2-2-0-2-2-2-22222-2-2-|
"Keep your head lookin up to the sky, see the blood boilin down below. Youll beleive
a snake can fly, i bleive that you cant say no!!!"

Chorus
Both guitars (01:37-01:57)
|------------------------------------------------------------------------|
|------------------------------------------------------------------------|
|------------------------------------------------------------------------|
|-4-4-4-44444-4-4-5-5-5-99999-9-9-4-4-4-44444-4-4-7-7-7-1212121212-12-12-|x2
|-4-4-4-44444-4-4-5-5-5-99999-9-9-4-4-4-44444-4-4-7-7-7-1212121212-12-12-|
|-2-2-2-22222-2-2-5-5-5-77777-7-7-2-2-2-22222-2-2-5-5-5-1010101010-10-10-|
"I can shake now, and i can show. i can go where no-one else goes!
 Check your head now, and hold on tight. Its surfin time, with the master of light!"
guitar 1 (01:37-01:51)
|-------------------------------------------|
|-14r13h14r13h14r13h14r13h14r13h14r13h14r13-|
|-------------------------------------------|
|-------------------------------------------|
|-------------------------------------------|
|-------------------------------------------|

Guitar 1 part 2 (01:51-02:00)
|-----------------------------------|
|-----------------------------------|
|-12-12-17~-15-14-12~-14~-13-10-12~-|
|-----------------------------------|
|-----------------------------------|
|-----------------------------------|

guitar 1 part 3 (02:00-02:06)
|--------------------------|
|-14r13h14r13h14r13h14r13h-|
|--------------------------|
|--------------------------|
|--------------------------|
|--------------------------|

Guitar 2 (volume swell in and out)(01:37-02:06)
|-------------------------------------|
|-------------------------------------|
|-------------------------------------|
|-2-4-4-4-44444-4-4-2-4-4-4-44444-4-4-|
|-2-4-4-4-44444-4-4-2-4-4-4-44444-4-4-|
|-0-2-2-2-22222-2-2-0-2-2-2-22222-2-2-|
"lifes a big explosion, with its candy and is pills. I can see why some of you, love
demons when your ill. Let me smooth allong your heart now, let me reach inside your brain.
a big explosion, aint it cool?


Chorus
Both guitars (01:51-02:23)
|------------------------------------------------------------------------|
|------------------------------------------------------------------------|
|------------------------------------------------------------------------|
|-4-4-4-44444-4-4-5-5-5-99999-9-9-4-4-4-44444-4-4-7-7-7-1212121212-12-12-|x2
|-4-4-4-44444-4-4-5-5-5-99999-9-9-4-4-4-44444-4-4-7-7-7-1212121212-12-12-|
|-2-2-2-22222-2-2-5-5-5-77777-7-7-2-2-2-22222-2-2-5-5-5-1010101010-10-10-|
"I can shake now, and i can show. i can go where no-one else goes!
 Check your head now, and hold on tight. Its surfin time, with the master of light!"

Post-chorus (02:23-02:40)
guitar 1
|----------------------------------|
|----------------------------------|
|----------------------------------|
|---7-5-7~--7-5~--7-5-7------------|
|-7-------7-----7-------7-5brbrbrbr|
|----------------------------------|

Guitar 2
|------------------------------------------------------------------------|
|------------------------------------------------------------------------|
|------------------------------------------------------------------------|
|-4-4-4-44444-4-4-5-5-5-99999-9-9-4-4-4-44444-4-4-7-7-7-1212121212-12-12-|x2
|-4-4-4-44444-4-4-5-5-5-99999-9-9-4-4-4-44444-4-4-7-7-7-1212121212-12-12-|
|-2-2-2-22222-2-2-5-5-5-77777-7-7-2-2-2-22222-2-2-5-5-5-1010101010-10-10-|


Break-down (02:44-03:09)
Both guitars (until 03:01 when guitar 1 changes but guitar 2 stays same)
|---------------------------------|
|---------------------------------|
|---------------------------------|
|-4-4-4-46-66-2-2-4-4-4-46-66-2-2-|x6
|-4-4-4-46-66-2-2-4-4-4-46-66-2-2-|
|-2-2-2-24-44-0-0-2-2-2-24-44-0-0-|

I dont know what guitar 1 does here but i know its pretty high. sorry i will try to
it out.

then after that it goes back to something like the beginning. with the drum beat and
from 03:09-03:35

then chorus again


Chorus
Both guitars (03:35-04:08)
|------------------------------------------------------------------------|
|------------------------------------------------------------------------|
|------------------------------------------------------------------------|
|-4-4-4-44444-4-4-5-5-5-99999-9-9-4-4-4-44444-4-4-7-7-7-1212121212-12-12-|x4
|-4-4-4-44444-4-4-5-5-5-99999-9-9-4-4-4-44444-4-4-7-7-7-1212121212-12-12-|
|-2-2-2-22222-2-2-5-5-5-77777-7-7-2-2-2-22222-2-2-5-5-5-1010101010-10-10-|
"I can shake now, and i can show. i can go where no-one else goes!
 Check your head now, and hold on tight. Its surfin time, with the master of light!"

Post-chorus (04:08-04:37)
guitar 1
|----------------------------------|
|----------------------------------|
|----------------------------------|
|---7-5-7~--7-5~--7-5-7------------|x4
|-7-------7-----7-------7-5brbrbrbr|
|----------------------------------|

Guitar 2
|------------------------------------------------------------------------|
|------------------------------------------------------------------------|
|------------------------------------------------------------------------|
|-4-4-4-44444-4-4-5-5-5-99999-9-9-4-4-4-44444-4-4-7-7-7-1212121212-12-12-|x4
|-4-4-4-44444-4-4-5-5-5-99999-9-9-4-4-4-44444-4-4-7-7-7-1212121212-12-12-|
|-2-2-2-22222-2-2-5-5-5-77777-7-7-2-2-2-22222-2-2-5-5-5-1010101010-10-10-|

Almost there ...

Sign in to get your own page with links to favourite songs and more. You are just one click away...

Login with Facebook Login with Google