Log in

One click and you are in

Login with Facebook Login with Google

Why sign up and log in

Guitar Tabs Explorer
Monster Magnet tabs for Heads explode

Guitar tabs with lyrics

Title: Heads explode
Album: God says no

I didn't find the tab for this song so i done it.
Verse 1:


Riff 1  x12
D-----------5---------
A----0-0------3--5---


Riff 2  x4
G-----------5---------
D----0-0------3--5---


Chorus 1: Riff 3  x2	" This is how we go... "

G-----------------------------------------------4-4--4-4--4-4--4-4----5-5--5-5--
D---5-5--5-5--5-5--5-5----5-5--5-5--5-5--5-5----4-4--4-4--4-4--4-4----5-5--5-5--
A---5-5--5-5--5-5--5-5----5-5--5-5--5-5--5-5----2-2--2-2--2-2--2-2----3-3--3-3--
E---7-7--7-7--7-7--7-7----3-3--3-3--3-3--3-3------------------------------------

5-5--5-5--
5-5--5-5--
3-3--3-3--
----------


Verse 2:

Riff 4  x12
A----------------------5--
E---3br---------12b--------


Riff 5  x8
D----------------------5--	I don't know the effect they use at the 12th

note.
A---3br---------12b--------


Chorus 2: Riff 3  x4


Interlude Part:


Riff 6  x2
D---------------------------------------
A-----3----5-5--4h5p4--5---4---3--------
E---0--------------------0---0----------


Riff 7  x2
D---------------------------------------
A-----3----7-7--6h7p6--7---5---3--------
E---0--------------------0---0----------

Play Riff 4  x8



Verse 3:


Riff 8  x8
A-------------5-------------
E----0---0-0-----0-3-5------


Riff 8  x8
D-------------5-------------
A----0---0-0-----0-3-5------


Chorus 3: Riff 3  x4

I didn't know the last melodic part.


If somebody can tab it please send it to me. Great song!
2001.04.10.

PS.: If anybody has the tab for the song Gimme danger(Iggy pop cover) from
Monster magnet or has tabs from the 2nd(Payin the dues) or 4th(High visibility)
Hellacopters album please send it to me, i can't find them anywhere.

Almost there ...

Sign in to get your own page with links to favourite songs and more. You are just one click away...

Login with Facebook Login with Google