Log in

One click and you are in

Login with Facebook Login with Google

Why sign up and log in

Guitar Tabs Explorer
Monster Magnet tabs for Ego the living planet

Guitar tabs with lyrics

Monster Magnet
"Ego The Living Planet"
On the album: "Dopes to Infinity" (1995)
Song written by: Dave Wyndorf
Tabbed out by: Nathan Tobola
On January 26th 2001

There aren't a whole lot of Monster Magnet tabs out there, so
I thought I'd give it a try.
I've included the times at which each riff starts at to help.
This is pretty simple, if you need help, listen to the song
to get the timing and rhythm down.

Tune Down 1/2 Step
(0:00)Introx4
|----------------------------------|
|----------------------------------|
|----------------------------------|
|--7-h6-6-6-6-6-6-6-6-6-6-6-6-6-6--|
|----------------------------------|
|----------------------------------|

(0:12)Main riff   x10

        |- -|     |- -|
|-----------------------------------------------------------|
|-----------------------------------------------------------|
|-----------------------------------------------------------|
|-----------------------------------------------------------|
|---7\6------6--4/6--6/7--7-9----7\6------6--4/6--6/7--7-9--|
|---5\4--4-4-4--2/4--4/5--5-7----5\4--4-4-4--2/4--4/5--5-7--|

(1:15)Chorus  x3
       |- -|                     |- -| then this 1 time
|---------------------------|-----------------------------|
|---------------------------|-----------------------------|
|---------------------------|-----------------------------|
|--7\6------6--6--11--9--7--|-7\6------6---7-6--7-6--7-6--|
|--5\4--4-4-4--4---9--7--5--|-5\4--4-4-4---5-4--5-4--5-4--|
|---------------------------|-----------------------------|

(1:27)Play the main riff 2 more times, then:

(1:40)Interludex1

|----------------------------------------------------------------------|
|----------------------------------------------------------------------|
|----------------------------------------------------------------------|
|----------------------------------------------------------------------|
|-8-----------9-------12\11--10\9-9--6-6--6---12\11--10\9-10\9--6-6--6-|
|-6-----------7-------10\-9---9\7-7--4-4--4---10\-9---9\7--9\7--4-4--4-|

(1:52) Then: x1      "I talk to Planets baby!"
|--------------------------------------|
|--------------------------------------|
|--------------------------------------|
|--------------------------------------|
|--8-----------8-8--9-----12-12-12-12--|
|--6-----------6-6--7-----10-10-10-10--|

Then play the main riff (2:02), chorus (2:40), and the interlude (2:52)
again.

(3:17) Then: x2

|---------------------------------------------|
|---------------------------------------------|
|---------------------------------------------|
|---------------------------------------------|
|-7----------6\---------7----------6\---------|
|-5----------4\---------5----------4\---------|

(3:42) Then: x9
|-----------------------------------------------|
|-----------------------------------------------|
|-----------------------------------------------|
|-----------------------------------------------|
|--7-6--7\6--7\6--6--7----7-6--7\6--7\6--6--7---|
|--5-4--5\4--5\4--4--5----5-4--5\4--5\4--4--5---|

Then play the interlude riff (4:31) for the ending

E-mail me at: Nato the potatoe@aol.com
if you have any corrections or suggestions.

Hope you enjoy!

And remember, don't be a victim of bad music!

--part1_e.828f33c.27a777ad_boundary--

Almost there ...

Sign in to get your own page with links to favourite songs and more. You are just one click away...

Login with Facebook Login with Google