Log in

One click and you are in

Login with Facebook Login with Google

Why sign up and log in

Guitar Tabs Explorer
Monster Magnet tabs for Dope to infinity intro

Dope To Infinity Intro tab by Monster Magnet

Monster Magnet tabs for Dope to infinity intro

Guitar tabs

Dropped A chord diagramD MajorD tuning, tuned down one whole step.
(holmerz@tele2adsl.dk)

A chord diagramD MajorD||--------------------------------------------|
A chord diagramA augmentedA||--------------------------------------------|
A chord diagramFF||--------------------------------------------|
A chord diagramC majorC||--------------------------------------------|
A chord diagramG+G||--------------------------------------------|
A chord diagramC majorC||--0--3----0--4----0--5----0--5----6----7----|

-------------------------------------------|
-------------------------------------------|
-------------------------------------------|
-------------------------------------------|
-------------------------------------------|
--0--3----0--4----0--5----0--6----7/-------|


--------------------------------------------|
--------------------------------------------|
--------------------------------------------|
--------------------------------------------|
--0--3----0--4----0--5----0--5----6----7----|
--0--3----0--4----0--5----0--5----6----7----|


-------------------------------------------|
-------------------------------------------|
-------------------------------------------|
-------------------------------------------|
--0--3----0--4----0--5----0--6----7/-------|
--0--3----0--4----0--5----0--6----7/-------|

Almost there ...

Sign in to get your own page with links to favourite songs and more. You are just one click away...

Login with Facebook Login with Google