Log in

One click and you are in

Login with Facebook Login with Google

Why sign up and log in

Guitar Tabs Explorer
Monster Magnet bass tabs for Crop circle

Bass tabs

song:crop circle
band:monster magnet
album:powertrip
tabbed by: joel (j_sorensson@hotmail.com)

(tune 1/2 down)

Easy song. Begins with Goliath and the Vampires, but I've tabbed that as a
separate song.(Since that's what it is.)

Intro: (Don't now if there's bass here.)
E


Verse riff:
gb-------------------------------
db-------------------------------
ab-0-0-0----------3-3-3----------
eb-------0--0-0-0-------0--0-0-0-


Chorus:       *=play 8 times
gb--------------------------------------
db--*--*--------------------------------
ab-3--0---------------------------------
eb--------0-0-3-0--0303-0-0-3-0--0303---

gb--------------------------------------
db--*--*--------------------------------
ab-3--5---------------------------------
eb--------0-0-3-0--0303-0-0-3-0--0303---


Bridge/Chorus:
gb------------------ -------------------------
db------------------ -------------------------
ab-5-7-------------- -5-7-7-7-7-7-7-5--5-5-5--
eb------------------ ------0-0-0-0------------

easy. comments? questions? corrections? pics of cheese?
mail me.

Almost there ...

Sign in to get your own page with links to favourite songs and more. You are just one click away...

Login with Facebook Login with Google