Log in

One click and you are in

Login with Facebook Login with Google

Why sign up and log in

Guitar Tabs Explorer
Monster Magnet chords for Bummer

Guitar chords

song:bummer
band:monster magnet
album:powertrip
tabbed by: joel (j_sorensson@hotmail.com)

No solos tabbed, but your not supposed to learn solos anyway.

(tune down 1/2)

intro riff:
eb----------
bb----------
gb----------
db-9/11-11--
ab-9/11-11--
eb-7/-9--9--


main riff:
eb------------------
bb------------------
gb---------xx-9-----
db-9/11-11-xx-9-7-x-
ab-9/11-11-xx-7-7-x-
eb-7/-9--9-xx---5-x-

"i you wanna stuff..."-part:
eb----
bb----
gb--*-
db-4--  *=play many times
ab-4--
eb-2--

chorus:
eb----------------------------
bb---------------------------- I'm not sure here.
gb----------------------------
db-6-6-6-6-6-6-7-7-7-2-2-9-9--
ab-6-6-6-6-6-6-7-7-7-2-2-9-9--
eb-4-4-4-4-4-4-5-5-5-0-0-7-7--


riff:
eb--------------------
bb--------------------
gb--------------------
db--------------------
ab---------10-9-7-9-7-
eb-9-9-9-9------------

end:
eb-----------  -------------------------------
bb-----------  -------------------------------
gb-----------  -12---11----9------------------
db-9-11-9-11-  -12---11----9-------------9-11-
ab-9-11-9-11-  -10----9----7-------------9-11-
eb-7--9-7--9-  --------------------------7--9-

.pretty easy. comments? questions? corrections? pics of cheese?
mail me.

Other versions of Bummer

BummerTabs

Almost there ...

Sign in to get your own page with links to favourite songs and more. You are just one click away...

Login with Facebook Login with Google