Log in

One click and you are in

Login with Facebook Login with Google

Why sign up and log in

Guitar Tabs Explorer
Monster Magnet bass tabs for Bummer

Bass tabs

song:bummer
band:monster magnet
album:powertrip
tabbed by: joel (j_sorensson@hotmail.com)

(tune down 1/2)
intro riff:
gb----------
db----------
ab----------
eb-5/-9--9--


main riff:
gb---------------------
db---------------------
ab------------7--------
eb-5/-9--9-xx--(9)-5-x-

fill:
gb-------------------
db------------------- sort of
ab-------------------
eb-10-9-7-5-3-2-1-0--

"i you wanna stuff..."-part:
gb------------
db------------something like this
ab------------
eb-0h2-2-2-22-


chorus:
gb-------------------------------
db-------------------------------
ab-------------------------------
eb-4-4-4-4--4-4-5-5-5--0--/7-7-9-

riff:
gb--------------------------
db-------------------------- there's a lot of noodling
ab--4--4--4--4--/10-9-7-9-7- going on here.
eb--------------------------

variation:
gb----------------------
db----------------------
ab-4--4--4--4-3-1-------
eb----------------4-2-0-

end:
gb----------- -------------------------------
db----------- -------------------------------
ab----------- -10----9----7------------------
eb-7--9-7--9- --------------------------7--9-

.this song rocks. comments? questions? corrections? pics of cheese?
mail me.



_________________________________________________________________

Almost there ...

Sign in to get your own page with links to favourite songs and more. You are just one click away...

Login with Facebook Login with Google