Log in

One click and you are in

Login with Facebook Login with Google

Why sign up and log in

Guitar Tabs Explorer
Monster Magnet chords for Atomic clock

Guitar chords

Tune down 1/2 step
All chords are powerchords.


VERSE:
B,A,B (Bass plays F#,A,B if you don't have any bass
       player, i suggest you play B/F#,A,B) (B/F#=224442)


CHORUS:
eb-----------------------
bb-----------------------
gb-----------------------
db-----------------------
ab-------------------9-7-
eb-9-9-9-7h9-7h9-7h9-----


BRIDGE/END:
eb-----noodle-
bb------------
gb------------
db-2-2--------
ab-2-2--------
eb-0-0--------

Other versions of Atomic Clock

Atomic clockTabs

Almost there ...

Sign in to get your own page with links to favourite songs and more. You are just one click away...

Login with Facebook Login with Google