Log in

One click and you are in

Login with Facebook Login with Google

Why sign up and log in

Guitar Tabs Explorer
Monster Magnet bass tabs for Atomic clock

Bass tabs

song:atomic clock
band:monster magnet
album:powertrip
tabbed by: joel (j_sorensson@hotmail.com)

(tune 1/2 down)

b=bend r=release /=slide (As usual.)
Verse:
gb----------------------------
db----------------------------
ab----------------------------
eb-2--2--x-5-5-x--7--b--r--/\-


chorus:
gb-------------------------
db-------------------------
ab---------------------9-7-
eb-9-9-9-7h9-7h9-7h9-9-----


Bridge/End:
gb------------
db------------
ab------------
eb-2-2--------


Solo:
gb------------------------- -------------------------
db------------------------- -------------------------
ab---------------------7-7- ---------------------5-5-
eb-9-9-9-7h9-7h9-7h9-9----- -7-7-7-5h7-5h7-5h7-7-----

.atomic song. comments? corrections? questions? pics of cheese?
mail me.

Almost there ...

Sign in to get your own page with links to favourite songs and more. You are just one click away...

Login with Facebook Login with Google