Log in

One click and you are in

Login with Facebook Login with Google

Why sign up and log in

Guitar Tabs Explorer
Monk Thelonious tabs for Straight no chaser

Guitar tabs

This is a 12-bar blues.  The indicated chords are simple, but you can
alter or spice them up any way you wish. This tune is pretty typical
of Monk's melodic sense: it's simple, but wry and not obvious.

Straight, No Chaser by Thelonious Monk
TAB by Bo Parker (parker_b%aplvax.span@fedex.msfc.nasa.gov)

      >>>

      A chord diagramA7A7                      A chord diagramD7D7

   &  1  &  2  &  3  &  4  &  1  &  2  &  3  &  4  &
E--------7--8--9-----------7--8--9--10-8---------------
B-----10----------------10-----------------------------
G--9-----------------9-----------------------------9---
D------------------------------------------------------
A------------------------------------------------------
E------------------------------------------------------


  A chord diagramA7A7

  1  &  2  &  3  &  4  &  1  &  2  &  3  &  4  &
E----7--8--9-----------7--8--9-----------7--8------
B-10----------------10----------------10-----------
G----------------9-----------------9---------------
D--------------------------------------------------
A--------------------------------------------------
E--------------------------------------------------


  A chord diagramD7D7

  1  &  2  &  3  &  4  &  1  &  2  &  3  &  4  &
E----------7--8--9--10-8---------------------------
B-------10-----------------------------------------
G----9---------------------------------------------
D--------------------------------------------------
A--------------------------------------------------
E--------------------------------------------------

  A chord diagramA7A7                      A chord diagramC#m7C#m7        A chord diagramF#7F#7

  1  &  2  &  3  &  4  &  1  &  2  &  3  &  4  &
E----------7--8--9-----------7--8--9-----------7---
B-------10----------------10----------------10-----
G----9-----------------9-----------------9---------
D--------------------------------------------------
A--------------------------------------------------
E--------------------------------------------------


  A chord diagramBm7Bm7                     A chord diagramE7E7

  1  &  2  &  3  &  4  &  1  &  2  &  3  &  4  &
E-8--9--10-------------------------7--8--9--10-----
B-------------------8--9-----10-11-----------------
G----------9--10-11----------------------------9---
D--------------------------------------------------
A--------------------------------------------------
E--------------------------------------------------


  A chord diagramA7A7                      A chord diagramBm7Bm7         A chord diagramE7E7

  1  &  2  &  3  &  4  &  1  &  2  &  3  &  4  &
E----7--8--9---------------------------------------  repeat from >>>
B-10-----------------------------------------------
G----------------------------------------------9---
D--------------------------------------------------
A--------------------------------------------------
E--------------------------------------------------

Enjoy

-Bo Parker
parker_b%aplvax.span@fedex.msfc.nasa.gov

I do not speak for my employer, whoever that is.

``...the razor inside, sir...jerk the handle...

Almost there ...

Sign in to get your own page with links to favourite songs and more. You are just one click away...

Login with Facebook Login with Google