Log in

One click and you are in

Login with Facebook Login with Google

Why sign up and log in

Guitar Tabs Explorer
Monitor Report chords for Trvail

Guitar chords

this is a great band monitor report search for them on kazaa



verse
--0----5----8----7
--0----6----8----8
--5----5----7----7
--7---------------
------------------
------------------


chorus
1st progression        2nd progression
--0----0----0----0-   --0----0----0----0--0--
--0----0----0----0-   --0----0----0----0--0--
--5----5----5--5-5-   --5----7----5----7--5--
--7----6----5--0-5-   --7----7----0----9--6--


this tab was done by sean enrite and revised by nate pettit

Almost there ...

Sign in to get your own page with links to favourite songs and more. You are just one click away...

Login with Facebook Login with Google