Log in

One click and you are in

Login with Facebook Login with Google

Why sign up and log in

Guitar Tabs Explorer
Mondo Generator bass tabs for Four corners

Bass tabs

Intro:(Guitar Only)
G|-----------------------------|---------------------------------|
D|-----------------------------|---------------------------------|
A|-----------------------------|---------------------------------|
E|-----------------------------|---------------------------------|
Verse:
("Four Corners of a dream...")
G|-----------------------------|---------------------------------|
D|-10--7--7-9-7---10--7--7-9-7-|---------------------------------|
A|-0---0--0-0-0---0---0--0-0-0-|-10-10--10-10-9---10-10--10-10-9-|
E|-----------------------------|-0--0---0--0--0---0--0---0--0--0-|

G|-----------------------------|---------------------------------|
D|-10--7--7-9-7---10--7--7-9-7-|---------------------------------|
A|-0---0--0-0-0---0---0--0-0-0-|-10-10--10-10-9---10-10--10-10-9-|
E|-----------------------------|-0--0---0--0--0---0--0---0--0--0-|

G|-----------------------------|---------------------------------|
D|-10--7--7-9-7---10--7--7-9-7-|---------------------------------|
A|-0---0--0-0-0---0---0--0-0-0-|-10-10--10-10-9---10-10--10-10-9-|
E|-----------------------------|-0--0---0--0--0---0--0---0--0--0-|

G|-----------------------------|---------------------------------|
D|-10--7--7-9-7---10--7--7-9-7-|---------------------------------|
A|-0---0--0-0-0---0---0--0-0-0-|-10-10--10-10-9---10-10--10-10-9-|
E|-----------------------------|-0--0---0--0--0---0--0---0--0--0-|


Chorus:
("I Stole what was mine...")
G|------------------------|------------------------|------------------------|------------------------|
D|------------------------|------------------------|------------------------|------------------------|
A|-2-2--2-2-2--3-3--3-3-3-|-7-7--7-7-7--7-7--7-7-7-|-2-2--2-2-2--3-3--3-3-3-|-7-7--7-7-7--7-7--7-7-7-|
E|------------------------|-0-0--0-0-0--0-0--0-0-0-|------------------------|-0-0--0-0-0--0-0--0-0-0-|

Verse:
("Can't believe what they said...")
G|-----------------------------|---------------------------------|
D|-10--7--7-9-7---10--7--7-9-7-|---------------------------------|
A|-0---0--0-0-0---0---0--0-0-0-|-10-10--10-10-9---10-10--10-10-9-|
E|-----------------------------|-0--0---0--0--0---0--0---0--0--0-|

G|-----------------------------|---------------------------------|
D|-10--7--7-9-7---10--7--7-9-7-|---------------------------------|
A|-0---0--0-0-0---0---0--0-0-0-|-10-10--10-10-9---10-10--10-10-9-|
E|-----------------------------|-0--0---0--0--0---0--0---0--0--0-|

G|-----------------------------|---------------------------------|
D|-10--7--7-9-7---10--7--7-9-7-|---------------------------------|
A|-0---0--0-0-0---0---0--0-0-0-|-10-10--10-10-9---10-10--10-10-9-|
E|-----------------------------|-0--0---0--0--0---0--0---0--0--0-|

G|-----------------------------|---------------------------------|
D|-10--7--7-9-7---10--7--7-9-7-|---------------------------------|
A|-0---0--0-0-0---0---0--0-0-0-|-10-10--10-10-9---10-10--10-10-9-|
E|-----------------------------|-0--0---0--0--0---0--0---0--0--0-|


Chorus:
("I Stole what was mine...")
G|------------------------|------------------------|------------------------|------------------------|
D|------------------------|------------------------|------------------------|------------------------|
A|-2-2--2-2-2--3-3--3-3-3-|-7-7--7-7-7--7-7--7-7-7-|-2-2--2-2-2--3-3--3-3-3-|-7-7--7-7-7--7-7--7-7-7-|
E|------------------------|-0-0--0-0-0--0-0--0-0-0-|------------------------|-0-0--0-0-0--0-0--0-0-0-|

("I Stole what was mine...")
G|------------------------|------------------------|------------------------|------------------------|
D|------------------------|------------------------|------------------------|------------------------|
A|-2-2--2-2-2--3-3--3-3-3-|-7-7--7-7-7--7-7--7-7-7-|-2-2--2-2-2--3-3--3-3-3-|-7-7--7-7-7--7-7--7-7-7-|
E|------------------------|-0-0--0-0-0--0-0--0-0-0-|------------------------|-0-0--0-0-0--0-0--0-0-0-|


Solo:
G|-----------------------------|---------------------------------|
D|-10--7--7-9-7---10--7--7-9-7-|---------------------------------|
A|-0---0--0-0-0---0---0--0-0-0-|-10-10--10-10-9---10-10--10-10-9-|
E|-----------------------------|-0--0---0--0--0---0--0---0--0--0-|

G|-----------------------------|---------------------------------|
D|-10--7--7-9-7---10--7--7-9-7-|---------------------------------|
A|-0---0--0-0-0---0---0--0-0-0-|-10-10--10-10-9---10-10--10-10-9-|
E|-----------------------------|-0--0---0--0--0---0--0---0--0--0-|

G|------------------------|------------------------|------------------------|------------------------|
D|------------------------|------------------------|------------------------|------------------------|
A|-2-2--2-2-2--3-3--3-3-3-|-7-7--7-7-7--7-7--7-7-7-|-2-2--2-2-2--3-3--3-3-3-|-7-7--7-7-7--7-7--7-7-7-|
E|------------------------|-0-0--0-0-0--0-0--0-0-0-|------------------------|-0-0--0-0-0--0-0--0-0-0-|

G|------------------------|------------------------|------------------------|------------------------|
D|------------------------|------------------------|------------------------|------------------------|
A|-2-2--2-2-2--3-3--3-3-3-|-7-7--7-7-7--7-7--7-7-7-|-2-2--2-2-2--3-3--3-3-3-|-7-7--7-7-7--7-7--7-7-7-|
E|------------------------|-0-0--0-0-0--0-0--0-0-0-|------------------------|-0-0--0-0-0--0-0--0-0-0-|

G|------------------------|------------------------|------------------------|------------------------|
D|------------------------|------------------------|------------------------|------------------------|
A|-2-2--2-2-2--3-3--3-3-3-|-7-7--7-7-7--7-7--7-7-7-|-2-2--2-2-2--3-3--3-3-3-|-7-7--7-7-7--7-7--7-7-7-|
E|------------------------|-0-0--0-0-0--0-0--0-0-0-|------------------------|-0-0--0-0-0--0-0--0-0-0-|

Final Verse/ Outro:
("Lost days, where the fuck have I been...")
G|-----------------------------|---------------------------------|
D|-10--7--7-9-7---10--7--7-9-7-|---------------------------------|
A|-0---0--0-0-0---0---0--0-0-0-|-10-10--10-10-9---10-10--10-10-9-|
E|-----------------------------|-0--0---0--0--0---0--0---0--0--0-|

G|-----------------------------|---------------------------------|
D|-10--7--7-9-7---10--7--7-9-7-|---------------------------------|
A|-0---0--0-0-0---0---0--0-0-0-|-10-10--10-10-9---10-10--10-10-9-|
E|-----------------------------|-0--0---0--0--0---0--0---0--0--0-|

G|-----------------------------|---------------------------------|
D|-10--7--7-9-7---10--7--7-9-7-|---------------------------------|
A|-0---0--0-0-0---0---0--0-0-0-|-10-10--10-10-9---10-10--10-10-9-|
E|-----------------------------|-0--0---0--0--0---0--0---0--0--0-|

G|-----------------------------|---------------------------------|
D|-10--7--7-9-7---10--7--7-9-7-|---------------------------------|
A|-0---0--0-0-0---0---0--0-0-0-|-10-10--10-10-9---10-10--10-10-9-|
E|-----------------------------|-0--0---0--0--0---0--0---0--0--0-|

G|-----------------------------|---------------------------------|
D|-10--7--7-9-7---10--7--7-9-7-|---------------------------------|
A|-0---0--0-0-0---0---0--0-0-0-|-10-10--10-10-9---10-10--10-10-9-|
E|-----------------------------|-0--0---0--0--0---0--0---0--0--0-|

G|-----------------------------|---------------------------------|
D|-10--7--7-9-7---10--7--7-9-7-|---------------------------------|
A|-0---0--0-0-0---0---0--0-0-0-|-10-10--10-10-9---10-10--10-10-9-|
E|-----------------------------|-0--0---0--0--0---0--0---0--0--0-|

G|-----------------------------|---------------------------------|
D|-10--7--7-9-7---10--7--7-9-7-|---------------------------------|
A|-0---0--0-0-0---0---0--0-0-0-|-10-10--10-10-9---10-10--10-10-9-|
E|-----------------------------|-0--0---0--0--0---0--0---0--0--0-|

G|-----------------------------|---------------------------------|
D|-10--7--7-9-7---10--7--7-9-7-|---------------------------------|
A|-0---0--0-0-0---0---0--0-0-0-|-10-10--10-10-9---10-10--10-10-9-|

Almost there ...

Sign in to get your own page with links to favourite songs and more. You are just one click away...

Login with Facebook Login with Google