Log in

One click and you are in

Login with Facebook Login with Google

Why sign up and log in

Guitar Tabs Explorer
Mondo Generator bass tabs for Auto pilot

Bass tabs

Intro:
G|---------------------------------------|---------------------------------------|
D|---------------------------------------|---------------------------------------|
A|---------------------------------------|---------------------------------------|
E|---------------------------------------|---------------------------------------|

G|---------------------------------------|---------------------------------------|
D|---------------------------------------|---------------------------------------|
A|-----------------5-5-5-5--4-4--4-4-5-4-|-----------------5-5-5-5--4-4--4-4-5-4-|
E|-7-7-7--7-7-7-7------------------------|-7-7-7--7-7-7-7------------------------|
Verse:
("Saw you lying there on the marble slab...")
G|---------------------------------------|---------------------------------------|
D|---------------------------------------|---------------------------------------|
A|-----------------5-5-5-5--4-4--4-4-5-4-|-----------------5-5-5-5--4-4--4-4-5-4-|
E|-7-7-7--7-7-7-7------------------------|-7-7-7--7-7-7-7------------------------|

G|---------------------------------------|---------------------------------------|
D|---------------------------------------|---------------------------------------|
A|-----------------5-5-5-5--4-4--4-4-5-4-|-----------------5-5-5-5--4-4--4-4-5-4-|
E|-7-7-7--7-7-7-7------------------------|-7-7-7--7-7-7-7------------------------|


Chorus:
("I wanna fly, Wanna ride with you...")
G|------------------------------------|------------------------------------|
D|------------------------------------|------------------------------------|
A|-------------------7-7-7-7--7-7-7-7-|-------------------7-7-7-7--7-7-7-7-|
E|-7-7-7-7--3-3-3-3-------------------|-7-7-7-7--3-3-3-3-------------------|

G|------------------------------------|------------------------------------|
D|------------------------------------|------------------------------------|
A|-------------------7-7-7-7--7-7-7-7-|-------------------7-7-7-7--7-7-7-7-|
E|-7-7-7-7--3-3-3-3-------------------|-7-7-7-7--3-3-3-3-------------------|

Verse:
("When we arrive in the middle of nowhere...")
G|---------------------------------------|---------------------------------------|
D|---------------------------------------|---------------------------------------|
A|-----------------5-5-5-5--4-4--4-4-5-4-|-----------------5-5-5-5--4-4--4-4-5-4-|
E|-7-7-7--7-7-7-7------------------------|-7-7-7--7-7-7-7------------------------|

G|---------------------------------------|---------------------------------------|
D|---------------------------------------|---------------------------------------|
A|-----------------5-5-5-5--4-4--4-4-5-4-|-----------------5-5-5-5--4-4--4-4-5-4-|
E|-7-7-7--7-7-7-7------------------------|-7-7-7--7-7-7-7------------------------|

 ("High up in a jet-plane with you...")
G|---------------------------------------|---------------------------------------|
D|---------------------------------------|---------------------------------------|
A|-----------------5-5-5-5--4-4--4-4-5-4-|-----------------5-5-5-5--4-4--4-4-5-4-|
E|-7-7-7--7-7-7-7------------------------|-7-7-7--7-7-7-7------------------------|


Chorus:
("I wanna fly, Wanna ride with you...")
G|------------------------------------|------------------------------------|
D|------------------------------------|------------------------------------|
A|-------------------7-7-7-7--7-7-7-7-|-------------------7-7-7-7--7-7-7-7-|
E|-7-7-7-7--3-3-3-3-------------------|-7-7-7-7--3-3-3-3-------------------|

G|------------------------------------|------------------------------------|
D|------------------------------------|------------------------------------|
A|-------------------7-7-7-7--7-7-7-7-|-------------------7-7-7-7--7-7-7-7-|
E|-7-7-7-7--3-3-3-3-------------------|-7-7-7-7--3-3-3-3-------------------|


Bridge:
("Ahhh ahh Auto Pilot No Control...")
G|--------------------------------|---------------------------------|
D|--------------------------------|---------------------------------|
A|-3-3-3--2--2-2-2--0-0-0---------|-3-3-3--2--2-2-2--0-0-0-0--0-0-0-|
E|------------------------0-0-0-0-|---------------------------------|

G|--------------------------------|-----------------|
D|--------------------------------|-----------------|
A|-3-3-3--2--2-2-2--0-0-0---------|-3-3-3--2--2-2-2-|
E|------------------------0-0-0-0-|-----------------|

 ("High up in a jet-plane with you...")
G|---------------------------------------|---------------------------------------|
D|---------------------------------------|---------------------------------------|
A|-----------------5-5-5-5--4-4--4-4-5-4-|-----------------5-5-5-5--4-4--4-4-5-4-|
E|-7-7-7--7-7-7-7------------------------|-7-7-7--7-7-7-7------------------------|


Chorus:
("I wanna fly, Wanna ride with you...")
G|------------------------------------|------------------------------------|
D|------------------------------------|------------------------------------|
A|-------------------7-7-7-7--7-7-7-7-|-------------------7-7-7-7--7-7-7-7-|
E|-7-7-7-7--3-3-3-3-------------------|-7-7-7-7--3-3-3-3-------------------|

G|------------------------------------|------------------------------------|
D|------------------------------------|------------------------------------|
A|-------------------7-7-7-7--7-7-7-7-|-------------------7-7-7-7--7-7-7-7-|
E|-7-7-7-7--3-3-3-3-------------------|-7-7-7-7--3-3-3-3-------------------|

("I'll Fly, I'll Fly, I'll Fly with you...")
G|------------------------------------|------------------------------------|
D|------------------------------------|------------------------------------|
A|-------------------7-7-7-7--7-7-7-7-|-------------------7-7-7-7--7-7-7-7-|
E|-7-7-7-7--3-3-3-3-------------------|-7-7-7-7--3-3-3-3-------------------|

G|------------------------------------|------------------------------------|
D|------------------------------------|------------------------------------|
A|-------------------7-7-7-7--7-7-7-7-|-------------------7-7-7-7--7-7-7-7-|
E|-7-7-7-7--3-3-3-3-------------------|-7-7-7-7--3-3-3-3-------------------|

G|------------------------------------|------------------------------------|
D|------------------------------------|------------------------------------|
A|-------------------7-7-7-7--7-7-7-7-|-------------------7-7-7-7--7-7-7-7-|

Almost there ...

Sign in to get your own page with links to favourite songs and more. You are just one click away...

Login with Facebook Login with Google