Log in

One click and you are in

Login with Facebook Login with Google

Why sign up and log in

Guitar Tabs Explorer
Mon Laferte bass tabs for Mi buen amor

Bass tabs

Tuning: Standard (E A D G)


Verse 1: (0:33-1:01)
G|-----------------|------------------|-------------------------|-----------------|---------------|
D|-----------------|------------------|-------------------------|-----------------|---------------|
A|-----------------|------------------|-7-----------------------|-5---5---5---5---|-5-----------5-|
E|-3------0-5------|-0-3------5-7-----|-------7\-0----5----5----|-----------------|---------5-----|
B|-----------------|------------------|-------------------------|-----------------|-----3---------|

Chorus: (1:02-1:59)
G|--------------------------|------------------------|------------------|-----------------------|
D|--------------------------|------------------------|-------7----------|-------9---------------|
A|---------3h5---3h5--------|----3h5---3h5---7-------|---------7--------|---------9---7---------|
E|-3-----3-------------3----|--3---------------5-----|-0-5-------5-7----|---7-------7------7\-0-|
B|--------------------------|------------------------|------------------|-7---------------------|

G|-----------------|-----------------|---------------------|
D|-----------------|-----------------|---------------------|
A|-----------------|-7---5---7---9---|-7---5-----------5---|
E|-3---5---7---8---|-----------------|-------------5-------|
B|-----------------|-----------------|---------3-----------|

G|--------------------------|------------------------|------------------|-----------------------|
D|--------------------------|------------------------|-------7----------|-------9---------------|
A|---------3h5---3h5--------|----3h5---3h5---7-------|---------7--------|---------9---7---------|
E|-3-----3-------------3----|--3---------------5-----|-0-5-------5-7----|---7-------7------7\-0-|
B|--------------------------|------------------------|------------------|-7---------------------|

G|-------------------|---------------|-------------|
D|-------------------|---------------|-------------|
A|---------------7---|-5---5---5-----|-------------|
E|-3---5-----7-------|---------------|-3-------3-\-|
B|-------------------|---------------|-------------|


Verse 2: (2:03-2:31)
G|--------------------|----------------------|-------------------|--------------------|----------------------|
D|--------------------|----------------------|-------------------|--------------------|----------------------|
A|--------3-/-10~-----|----------------------|-------7-----------|------------5---5---|-5---5---5----------5-|
E|-3------------------|-0-5-----5------7-----|-7----------7-0----|-5-----5------------|-----------------5----|
B|--------------------|----------------------|-------------------|--------------------|-------------3--------|


Chorus 2: (2:32-3:29)
G|--------------------------|------------------------|------------------|--------------------|
D|--------------------------|------------------------|-------7----------|-------9------------|
A|---------3h5---3h5--------|----3h5---3h5---7-------|---------7--------|---------9---7------|
E|-3-----3-------------3----|--3---------------5-----|-0-5-------5-7----|---7-------7------0-|
B|--------------------------|------------------------|------------------|-7------------------|

G|-----------------|-----------------|---------------------|
D|-----------------|-----------------|---------------------|
A|-----------------|-7---5---7---9---|-7---5-----------5---|
E|-3---5---7---8---|-----------------|-------------5-------|
B|-----------------|-----------------|---------3-----------|

G|--------------------------|------------------------|------------------|-----------------------|
D|--------------------------|------------------------|-------7----------|-------9---------------|
A|---------3h5---3h5--------|----3h5---3h5-----------|---------7--------|---------9---7---------|
E|-3-----3-------------3----|--3---------------5-----|-0-5-------5-7----|---7-------7------7\-0-|
B|--------------------------|------------------------|------------------|-7---------------------|

G|-----------------|---------------|-------------------|
D|-----------------|---------------|-------------------|
A|-------------7---|---------------|---------3h5---3h5-|
E|-5---7---8-------|---------------|-3-----3-----------|
B|-----------------|-3---3---3-----|-------------------|


Outro: (3:30-3:34)
G|------------------------|
D|------------------------|
A|---------3h5---3h5------|
E|-3-----3--------------3-|
B|------------------------|

************************************

| h  Hammer-on
| /  Slide up
| \  Slide down
| ~  Vibrato

************************************

Almost there ...

Sign in to get your own page with links to favourite songs and more. You are just one click away...

Login with Facebook Login with Google