Log in

One click and you are in

Login with Facebook Login with Google

Why sign up and log in

Guitar Tabs Explorer
Molly Hatchet tabs for Dreams i ll never see

Intro

~intro
E--------------------------------
B--------------------------------
G--------------------------------
D----5------x-4-----x-2----x-4---
A----5------x-5-----x-3----x-5---
E--------------------------------


~~~~~~~~~~~~~~~~~~~~~~~~~~~~~~~~~~~~~~~~~~~~~~~


~chorus/ intro continued (faster)
E------------------------------------------------
B------------------------------------------------
G------------------------------------------------
D-5-x-x-5-x-x-x-x-5-x-x-5-4-x-x-4-x-x-x-x-4-x-x-4
A-5-x-x-5-x-x-x-x-5-x-x-5-5-x-x-5-x-x-x-x-5-x-x-5
E------------------------------------------------

repeat a BUNCH

keep the steady beat
roughly around 210 BPM.

Almost there ...

Sign in to get your own page with links to favourite songs and more. You are just one click away...

Login with Facebook Login with Google