Log in

One click and you are in

Login with Facebook Login with Google

Why sign up and log in

Guitar Tabs Explorer
The Moldy Peaches chords for Nothing came out

Nothing Came Out chords by The Moldy Peaches

The Moldy Peaches chords for Nothing came out

Guitar chords with lyrics

From album 'The Moldy Peaches'
> >Brought to you by Martin Smith
> >
> >My first tab, could maybe use a few more 7ths/major 7ths, you decide,
> >there's not a better version to offer so
> >you're going to have to make do for now :D
> >[Definitions]
> >
> >Riff
> >
> >e:|------------------------
> >B:|------------------------
> >G:|----------------------0-
> >D:|----------0----0h2------
> >A:|---0h2------------------
> >E:|------------------------
> >
> >Each chord is played in the following manner, (timing very approximate):
> >
> >C
> >
> >e:|-----0---------0------
> >B:|-----1---------1------
> >G:|-----0---------0------
> >D:|-----2---------2------
> >A:|-3---3---3-33--3------
> >E:|----------------------
> >
> >Am7
> >
> >e:|-------3----------------
> >B:|-------1----------------
> >G:|-------2----------------
> >D:|-------2----------------
> >A:|-0-0---0----------------
> >E:|------------------------
> >		_
> >F		A chord diagramG+G
> >
> >e:|-1---1----1-|-3---3-----
> >B:|-1---1----1-|-3---3-----
> >G:|-2---2----2-|-4---4-----
> >D:|-3---3----3-|-5---5-----
> >A:|-3---3----3-|-5---5-----
> >E:|-1---1----1-|-3---3-----
> >
 A chord diagramG+G   A chord diagramG7G7	A chord diagramA minorAm	A chord diagramF minorFm (A chord diagramFm7Fm7)(I can't make up my mind on the right chord here)
> >
> >e:|-----3----1---0-------1-----
> >B:|-----3----0---1-------1-(4)-
> >G:|-----0----0---2-------1-----
> >D:|-----0----0---2-------3-----
> >A:|-----2----2---0-------3-----
> >E:|-----3----3-----------1-----
> >
> >[Intro]
> >
> >Riff1; C----Am7----F--G--Am---- [x2]
> >
> >[Verse]> >Riff1
> >C                 A chord diagramAm7Am7 >    Just because...
> >	A chord diagramFF	A chord diagramG+G   N.C.    A chord diagramA minorAm
> >Doesn't mean
> >Riff1
> >C                           A chord diagramAm7Am7
               _
> >F           A chord diagramG+G          A chord diagramA minorAm
> >

[Verse] [same sequence & timing]
> >
> >Without 40 ounces...
>
> >[Chorus] [Use the last A chord diagramA minorAm to play you into this]
> >	 [Strum as you feel it goes]
> >					   _
> >Am			    A chord diagramC majorC ( )   A chord diagramG+G (not A chord diagramG+G)
> >And besides
> >           A chord diagramF minorFm (A chord diagramFm7Fm7 )			    A chord diagramC majorC
> >	   A chord diagramG+G
> >Am		       A chord diagramC majorC          A chord diagramG+G
> >     A chord diagramF minorFm (A chord diagramFm7Fm7 )          A chord diagramC majorC           A chord diagramG7G7
> >
> >[Instrumental] [Play verse pattern and whistle tunefully down a piccalo]
> >
> >[Chorus Pattern]
> >
> >I just wanna watch...
> >[Verse]
> >
> >I tried to ask ...
> >[Chorus]
> >
> >And besides...
>
>[Verse]
> >
> >Just becase [Chorus]
> >
> >And besides,...
> >
> >Well there you are, people, enjoy, and buy the album!
> >Please help me improve the tab, e-mail me straight away at the slightest
> >imperfection
> >
> >bigearedbean@hotmail.com

Almost there ...

Sign in to get your own page with links to favourite songs and more. You are just one click away...

Login with Facebook Login with Google