Lucky Charms by The Moldy Peaches

Lucky Charms tab by The Moldy Peaches

Guitar tabs

The Moldy Peaches
>From their self-titled album
Brought to you by the Bean

Lucky Charms

Played on the guitar but it sounds pretty awesome on the Mandolin :D

Part 1
G||-----------------0---> First Time
D||o-2-0-2---2-0-2------> to Bit 1
A||o--------------------> Next Time
E||---------------------> to Bit 2


Bit A----------------------------------¬
G|--------|---------------------------||
D|-2---0--|--0---0---0---0-----------o|| Back to
A|--------|----3-------3-----0-0-----o|| Part 1
E|--------|-----------------------3---||

Bit 2-------------------------------¬
G|-5--4-2-|------------------------||
D|--------|--2-0---2-0-------------|| Finé
A|--------|--------------3----3-3--||
E|--------|------------------------||


Any comments, suggestions, etc, just let me know... make me look popular and
fill my inbox :D
bigearedbean@hotmail.com

Other versions of Lucky Charms

Alternative guitar chords and tabs for Lucky Charms by The Moldy Peaches

Find guitar tabs and chords

A B C D E F G H I J K L M N O P Q R S T U V W X Y Z #