Log in

One click and you are in

Login with Facebook Login with Google

Why sign up and log in

Guitar Tabs Explorer
The Moldy Peaches tabs for Ballad of helen keller and rip van winkle

Ballad Of Helen Keller And Rip Van Winkle tab by The Moldy Peaches

The Moldy Peaches tabs for Ballad of helen keller and rip van winkle

Guitar tabs

"The Ballad of Helen Keller and Rip van Winkle"
Kimya Dawson and Adam Green (The Moldy Peaches)

Tabbed by the Rabid Chipmunk: phbrazio@yahoo.com
(email all corrections, comments, lyric requests,
and death threats to above address)
...and yes, this is all my own original interpretation and such

the main riff is just a A chord diagramC majorC chord over and over again:

e----------|---------|
B----1-----|---3-----|
G------0---|-----0---|
D--------2-|-------2-|
A--3-------|-3-------|
E----------|---------|

the other lick goes:

e----0-3-0-|---0-3-0-|
B----------|-3-------|
G----------|---------|
D----------|---------|
A----------|---------|
E----------|---------|

you can fingerpick the 2 together if you don't have another guitar to
accompany:

e----0-3-0-|---0-3-0-|
B----1-----|-3-3-----|
G------0---|-----0---|
D--------2-|-------2-|
A--3-------|-3-------|
E----------|---------|

Other versions of Ballad Of Helen Keller And Rip Van Winkle

Ballad of helen keller and rip van winkleChords

Almost there ...

Sign in to get your own page with links to favourite songs and more. You are just one click away...

Login with Facebook Login with Google