Log in

One click and you are in

Login with Facebook Login with Google

Why sign up and log in

Guitar Tabs Explorer
Moke guitar tabs for Wheel in motion

Guitar tabs

Tabbed by:  Tyler Christesen (KidCisco33@aol.com)

*Intro*
E|-------2--0--
B|-------2--0--
G|-------4--2--
D|-2--4--4--2--
A|-2--4--2--0--
E|-0--2--------

*Verse*
E|-----2--0--
B|-----2--0--
G|-----4--2--
D|--4--4--2--
A|--4--2--0--
E|--2--------
*Goodbye Riff*
E|-----------2-------------2-
B|------2----2-------------2-
G|-4----4----4--------4----4-
D|-4----4----4------4------4-
A|-2----2----2----2--------2-
E|---------------------------

Goodbye, Goodbye

*Verse Again*


*Goodbye Riff*

Goodbye, Goodbye

-Tyler-

Almost there ...

Sign in to get your own page with links to favourite songs and more. You are just one click away...

Login with Facebook Login with Google