Log in

One click and you are in

Login with Facebook Login with Google

Why sign up and log in

Guitar Tabs Explorer
Moist bass tabs for Silver

Bass tabs

Song Title: Silver
----------------------------------------------

  Verse (repeat as many times as the song goes)
G-|-------------------------------------------------------------
D-|-------------------------------------------------------------
A-|-----------5-55----------------------------------------------
E-|-----5-55---------5-55----3---1-11---------------------------

   Chours (repeat as many times as the song goes)
G-|--------------------------------------------------------------
D-|--------------------------------------------------------------
A-|---------------5-55-------------------------------------------
E-|---------5-55--------5-55------1-11---------------------------

  Bridge
G-|------------------------------------------------------------
D-|------------------------------------------------------------
A-|--------5-------------------5-------------------------------
E-|-------------3-----1-------------3----1---------------------

      That's there is to it.......very easy song

Almost there ...

Sign in to get your own page with links to favourite songs and more. You are just one click away...

Login with Facebook Login with Google