Search tabs and chords

Browse bands and artists

A B C D E F G H I J K L M N O P Q R S T U V W X Y Z #

Log in

[ Register here | Forgot password ]

Guitar Tabs Explorer
Print

Guitar tabs with lyrics:

Titibo Tibo tab by Moira Dela Torre

  • Capo on 3rd fret
Key: Bb

Notes:
If you want to play it in G place the capo on the 3rd fret
If you want to play it in A place the capo on the 1st fret


************************************
| h   Hammer-on
| /   Slide up
************************************

Intro
e|--10-------------10----10--13--13-----10-----10------|
B|-----13--11--13-----13-----13--13-----11-----10------|
G|-----------------------------------10-----11---------|
D|-----------------------------------------------------|
A|-----------------------------------------------------|
E|-----------------------------------------------------|

e|--10-------------10----10--13--13/15--13-------------------|
B|-----13--11--13-----13-------------------15--13--11--------|
G|-----------------------------------------------------------|
D|-----------------------------------------------------------|
A|-----------------------------------------------------------|
E|-----------------------------------------------------------|

e|----------10---------------------------------------------------------------|
B|---11--13--------11--13--13/14--11h13--11-----11--13--13/14--11h13--11-----|
G|---11---------11---------------------------12------------------------------|
D|---------------------------------------------------------------------------|
A|---------------------------------------------------------------------------|
E|---------------------------------------------------------------------------|

e|-------------10--13----13----13--12--11--10------------------------17--18--19--20------|
B|-----11--13----------------------------------13--12--10--------------------------------|
G|--12----------------10----------------------------------13--12—10----------------------|
D|---------------------------------------------------------------------------------------|
A|---------------------------------------------------------------------------------------|
E|---------------------------------------------------------------------------------------|

Verse 1
Bb                 D7
Elementary pa lang napapansin na nila
 Gm                         Bb7
Mga gawi kong parang hindi pambabae E kasi
  Eb                           Dm7
Imbes na Chinese garter laruan ko ay teks at jolens
 C                                 F
Tapos ka-jamming ko lagi noon mga sigang lalaki sa amin


Cute guitar riff #1:
e|--13--10-----------------10--11--12--13----|
B|---------13--10----------------------------|
G|-----------------13--10--------------------|
D|-------------------------------------------|
A|-------------------------------------------|
E|-------------------------------------------|


 Bb                           D7
Nung ako’y mag-high school ay napabarkadasa mga bi
 Gm                      Bb7
Curious na babae na ang hanap din ay babae
Eb                        Dm7       Gm7
Sa halip na makeup kit bitbit ko ay gitara
 C
Tapos pormahan ko lagi ay long sleeves na
 F
tshirt at faded na lonta



Cute guitar riff #2:
e|--13--10-----------------10--11--12--13----|
B|---------13--10----------------------------|
G|-----------------13--10--------------------|
D|-------------------------------------------|
A|-------------------------------------------|
E|-------------------------------------------|

Pre-chorus
 Gm                         Dm
Pero noong nakilala kita nagbagong bigla
                   Eb
ang aking timpla natuto ako na magparebond
       F                 D/F#
at mag-ahit ng kilay at least once a month

   Gm
Hindi ko alam kung anong meron ka na sa
Dm
akin ay nagpalambot nang bigla
         Eb                            C
Sinong mag-aakalang lalake pala ang bibihag
               F
sa tulad kong tigreng gala


Cute guitar riff #3:
e|--13--12--11--10------------------------10--11--12--13-------|
B|------------------13--12--10---------------------------------|
G|------------------------------13--12—10----------------------|
D|-------------------------------------------------------------|
A|-------------------------------------------------------------|
E|-------------------------------------------------------------|
Chorus
             Bb           D7
Kahit ako’y titibo-tibo..
            Gm              Bb7
Puso ko ay titibok-tibok parin sa’yo
        Eb                      Ebm
Isang halik mo lamang at ako ay tinatablan
         Bb                   C
At ang aking pagkababae ay nabubuhayan
         Eb                 Ebm
Na para bang bulaklak na namumukadkad
        Bb                      Bb7
Dahil alaga mo sa dilig at katamtamang
                Eb
Sikat ng araw-araw mong pag-ibig
         C        F     Bb
Sa’king buhay nagpapasarap
Instrumental
Bb D7 Gm Bb7 Eb Ebm Bb7 F G


e|--13--12--11--10------------------------10--11--12--13-------|
B|------------------13--12--10---------------------------------|
G|------------------------------13--12—10--------------------|
D|-------------------------------------------------------------|
A|-------------------------------------------------------------|
E|-------------------------------------------------------------|



e|--10-------------10----10--13-----10-----10------|
B|-----13--11--13-----13------------11-----10------|
G|-------------------------------10-----11---------|
D|-------------------------------------------------|
A|-------------------------------------------------|
E|-------------------------------------------------|

e|--10-------------10----10--13--13/15--13-------------------|
B|-----13--11--13-----13-------------------15--13--11--------|
G|-----------------------------------------------------------|
D|-----------------------------------------------------------|
A|-----------------------------------------------------------|
E|-----------------------------------------------------------|

e|----------10---------------------------------------------------------------|
B|---11--13--------11--13--13/14--11h13--11-----11--13--13/14--11h13--11-----|
G|---11---------11---------------------------12------------------------------|
D|---------------------------------------------------------------------------|
A|---------------------------------------------------------------------------|
E|---------------------------------------------------------------------------|

e|-------------10--13----13----13--12--11--10--------------------------------------------|
B|-----11--13----------------------------------13--12--10------------12--13--14--15------|
G|--12----------------10----------------------------------13--12—10--------------------|
D|---------------------------------------------------------------------------------------|
A|---------------------------------------------------------------------------------------|
E|---------------------------------------------------------------------------------------|

G

Verse 2
 C                          E7
Nung tayo’y nag-college ay saka ko lamang
         Am
binigay ang matamis na oo
          C7
Sampung buwan mong trinabaho
 F                           Em7            Am
Sa halip na tsokolate at tipikal na mga diskarte
 D                              G
Nabihag mo ko sa mga tula at sa mga kanta mong pabebe

Cute guitar riff #3:
e|--15--12-----------------12--13--14--15----|
B|---------15--12----------------------------|
G|-----------------15--12--------------------|
D|-------------------------------------------|
A|-------------------------------------------|
E|-------------------------------------------|


Pre-chorus
 Am                               Em
Kaya nga noong makilala kita alam mo na agad na

mayroong himala
   F                                G
Natuto akong magtakong at napadalas ang
                         G#
pagsuot ng bestidang pula

*note: ung G# diyan E bass line lang

     Am
Pero di mo naman inasam na ako ay
    Em
magbabagong tuluyan para patunayang
   F                              G
Walang matigas na tinapay sa mainit na
N.C
kape ng iyong pagmamahal


Chorus riff:
e|--------12--15-------12--16-----------17------|
B|-----13-----------12-----------13--17---------|
G|--12-----------13-----------14----------------|
D|----------------------------------------------|
A|----------------------------------------------|
E|----------------------------------------------|

*Note: Papasok itong riff nya sa ‘ti’ ng titibo-tibo
Chorus
              C        E7
Kahit ako’y titibo-tibo...
             Am           C7
Puso ko ay titibok-tibok parin sa’yo
       F                           Fm
Isang halik mo lamang at ako ay tinatablan
                  C            D
At ang aking pagkababae ay nabubuhayan
          F                   Fm
Na para bang bulaklak na namumukadkad
        C                       C7
Dahil alaga mo sa dilig at katamtamang
               F
Sikat ng araw-araw mong pag-ibig
         D       G
Sa’king buhay nagpapasarap
Ending
e|--12--13--15--12-------------------|
B|-----------------13---------13-----|
G|--------------------12--10--12-----|
D|-----------------------------------|
A|-----------------------------------|
E|-----------------------------------|

Other versions of Titibo Tibo

Titibo tiboChords
Titibo tibo (Ver. 2)Chords
Titibo tibo (Ver. 3)Chords
Titibo tibo (Ver. 4)Chords
Titibo tibo acousticTabs

Comments

Moira Dela Torre guitar tabs for Titibo tibo