Search tabs and chords

Search for song, artist or band

Log in

One click and you are in

Login with Facebook Login with Google

Why sign up and log in

Guitar Tabs Explorer
Moira Dela Torre guitar tabs for Titibo-tibo acoustic

Guitar tabs

  • Capo on 5th
Intro:
e|--5/7--5--3--5--5/7--5--7--10-10--10--------5/7-|-5--3--5--5/7--5--7--10--12--10------------------------|
B|------------------------------------------------|---------------------------------12--10--8--8--10--12--|
G|----------------0---------------------4--4------|-----------------------------------------0-------------|
D|--------------------------------------4--4------|-------------------------------------------------------|
A|--------------------------------------2--2------|-------------------------------------------------------|
E|------------------------------------------------|----------0--------------------------------------------|

e|----------------------------------------------|----------------------10-----10--10-9-8-7-----------------|
B|--8--10--10/11--8h10--8-----8--10--10/11--8h10|--8-----8--10--10/12----------------------10-9-7----------|
G|-------------------------9--------------------|-----9---------0----------7-----------------------10-9-7--|
D|----------------------------------------------|----------------------------------------------------------|
A|----------------------------------------------|----------------------------------------------------------|
E|---------8-------------------------8----------|----------------------------------------------------------|

e|--14-15-16-17--|
B|---------------|
G|---------------|
D|---------------|
A|---------------|
E|---------------|


Verse1:
e|-------------------------------------------|-----------------------------------------------|
B|-----0-----0--3--0-----0--0-----0--3--0---0|--0-0----------------------0-------------------|
G|--------2-----------2--------2----------2--|-------2-0--2--0--2--0--2-----2--0--2--0--2-2--|
D|-------------------------------------------|-----------------------------------------------|
A|--------------------------2----------------|-----------------------------------------------|
E|--0--3-----------x--------------------x----|--0------------x-----------3-----------x-------|

e|-------------------------------------------|----------------------------------------------|
B|-------------------------------------------|0------------------------------------------0--|
G|--2--0--2--0--2--0--2-2--0--2--0--2--0--2--|---2-2-2-2-2-0-2-2-2-2-0-0--2-2-2-2-2-0-2-----|
D|-------------------------------------------|----------------------------0-----------------|
A|--3----------------------------------------|---0------------------------------------------|
E|--------------x-------------3-----------x--|---------------x------------------------x-----|

e|--10-7----------7-8-9-10--|
B|-------10-7---------------|
G|------------9-7-----------|
D|--------------------------|
A|--------------------------|
E|--------------------------|

Verse2:
e|-------------------------------------------|-----------------------------------------------|
B|-----0-----0--3--0-----0--0-----0--3--0---0|--0-0----------------------0-------------------|
G|--------2-----------2--------2----------2--|-------2-0--2--0--2--0--2-----2--0--2--0--2-2--|
D|-------------------------------------------|-----------------------------------------------|
A|--------------------------2----------------|-----------------------------------------------|
E|-----3-----------x--------------------x----|--0------------x-----------3-----------x-------|

e|-------------------------------------------|----------------------------3-3-3-2-2-2-0-----|
B|-------------------------------------------|0------------------------------------------3--|
G|--2--0--2--0--2--0--2-2--0--2--0--2--0--2--|---2-2-2-2-2-0-2-2-2-2-0-0--------------------|
D|-------------------------------------------|----------------------------0-----------------|
A|--3----------------------------------------|---0------------------------------------------|
E|--------------x-------------3-----------x--|---------------x------------------------x-----|

e|--10-7----------7-8-9-10--|
B|-------10-7---------------|
G|------------9-7-----------|
D|--------------------------|
A|--------------------------|
E|--------------------------|

Pre-Chorus1:
e|--3-3-3-2-2-2-0-0-0-------0-0-0-----------|-----------------------------------------------------|
B|--------------------3--3--------3-3-0-0-3-|0--0-1-1-1-0-0-0-------------0-----0-----0-----------|
G|------------------------------------------|-----------------2-2-2-0-0-0---2-0---2-0---2-0-2--2--|
D|------------------------------------------|-----------------------------0-----------------------|
A|--------------------------2---------------|-----3-----------------------------------------------|
E|--0-----------x---------------------x-----|-----------------x-----------------------x-----------|

e|--3-3-3-2-2-2-0-0-0-------0-0-0-----------|----------------------------------------------------|
B|--------------------3--3--------3-3-0-0-3-|0--0-1-1-1-0-0-0-------------0-----0-----0----------|
G|------------------------------------------|-----------------2-2-2-0-0-0---2-0---2-0---2-0-0h2--|
D|------------------------------------------|-----------------------------0----------------------|
A|--------------------------2---------------|-----3----------------------------------------------|
E|--0-----------x---------------------x-----|-----------------x-----------------------x----------|

e|--10-9-8-7----------------|--7-8-9-10--|
B|------------10-9-7--------|------------|
G|--------------------10-9-7|------------|
D|--------------------------|------------|
A|--------------------------|------------|
E|--------------------------|------------|

Chorus:
e|-----------------------------------------|------------------------------------------------------------|
B|----------------0-----0--3--3--------0--0|-----------0-----0--3--3/5----3-0---------------------------|
G|--2/4--2--0--2-----2--------0-----2------|--2--0--2-----2--------0-----------------0--2--2-------0h2--|
D|----------------------------------0------|--------------------------------------0-----------0h2-------|
A|----------------------------------2------|------------------------------------------------------------|
E|----------------3-----------x--3--------x|-----------0-----------x---0-------3-----------x------------|

e|-----------------------------------------|-------------------0----------------------------------|
B|--0--------------------------------------|-------0--3--3--0-----3--0--3--0----------------------|
G|-----2--0--2--0--2--0--2--3-2--0--2-----0|-0--2--------0--------------------2--0--2--2--0-0-----|
D|-----------------------------------------|---------------------------------------------------2--|
A|--3-----------------------3--------------|-------------------------------0----------------------|
E|--------------x----------------------x---|-------3-----------x-----------------------x----------|

e|-----------------------------------------|-----3-3-3-2--2-0--0-----------------------------------------|
B|----------x------------0-----------------|-----0----------0-----3--3--0-----------0-----------0--------|
G|--0-----0-x-0-0--0--2-----2--0--2--2--0-0|--0----------------------------2--0--2--0--2--0--2--------0--|
D|-----2----x------------------------------|-------------------------------------------------------2-----|
A|--3-------x------------3-----------------|----------------------------------------------------3--------|
E|--------------x--------------------x-----|-----3----------x-----------3-----------x--------------------|

e|-----------------------------------------|--3-----10-9-8-7------------------7-8-9-10--|
B|------------------0----------------------|--3---------------10-9-7--------------------|
G|--2----------0h2-----2--0--0-----0h2-0---|--0-----------------------10-9-7------------|
D|--------0h2-------------------2----------|-----0--------------------------------------|
A|------------------3----------------------|--------------------------------------------|
E|-----x---------------------x------------3|--x-----------------------------------------|

Instrumental:
e|--7--5--3--5--5/7--5--7--7/10--10--10----|----7--5--3--5--5/7--5--7--10--12--10------------------------|
B|--0-----0-----0----------------0---------|----0-----0----------------------------12--10--8--8--10--12--|
G|--0------------------------------------4-|-4--0------------------------------------------0-------------|
D|---------------------------------------4-|-4-----------------------------------------------------------|
A|---------------------------------------2-|-2-----------------------------------------------------------|
E|--3-----------x--------------------------|----0-----------x--------------x-------------------------x---|

e|-----------------------------------------|---------------------------10----10--|
B|--8--10--10/11--8h10--8------8--10--10/11|--8h10--8----8--10--10/12------------|
G|---------------------------9-------------|-----------9--------0---------7------|
D|-----------------------------------------|-------------------------------------|
A|-----------------------------------------|-------------------------------------|
E|---------8--------------x----------------|-------------------------------------|

e|--10-9-8-7-----------------|-4-5-6-7--7--|
B|------------10-9-7---------|----------7--|
G|--------------------10-9-7-|----------9--| -->Slide Capo From 3rd Fret to 5th Fret
D|---------------------------|----------9--|
A|---------------------------|----------7--|
E|---------------------------|----------7--|

Verse3:
e|--------------------------------------------------------------|----------------------------|
B|-----0-----0--3--0-----0--0-----0--3--0---0--0-0--------------|--------0-------------------|
G|--------2-----------2--------2----------2---------2-0--2--0--2|--0--2-----2--0--2--0--2-2--|
D|--------------------------------------------------------------|----------------------------|
A|--------------------------2-----------------------------------|----------------------------|
E|-----3-----------x--------------------x------0------------x---|--------3-----------x-------|

e|--------------------------------------------------------------|---------3-3-3-2-2-2-0-----|
B|-------------------------------------------0------------------|------------------------3--|
G|--2--0--2--0--2--0--2-2--0--2--0--2--0--2-----2-2-2-2-2-0-2-2-|2-2-0-0--------------------|
D|--------------------------------------------------------------|---------0-----------------|
A|--3-------------------------------------------0---------------|---------------------------|
E|--------------x-------------3-----------x-----------------x---|---------------------x-----|

e|--10-7----------7-8-9-10--|
B|-------10-7---------------|
G|------------9-7-----------|
D|--------------------------|
A|--------------------------|
E|--------------------------|

Pre-Chorus2:
e|--3-3-3-2-2-2-0-0-0-------0-0-0-------------------------------|---------------------------------|
B|--------------------3--3--------3-3-0-0-3-0--0-1-1-1-0-0-0----|---------0-----0-----0-----------|
G|-----------------------------------------------------------2-2|-2-0-0-0---2-0---2-0---2-0-2--2--|
D|--------------------------------------------------------------|---------0-----------------------|
A|--------------------------2--------------------3--------------|---------------------------------|
E|--0-----------------------------------------------------------|---------------------------------|

e|--3-3-3-2-2-2-0-0-0-------0-0-0-------------------------------|--------------------------------|
B|--------------------3--3--------3-3-0-0-3-0--0-1-1-1-0-0-0----|---------0-----0-----0----------|
G|-----------------------------------------------------------2-2|-2-0-0-0---2-0---2-0---2-0-0h2--|
D|--------------------------------------------------------------|---------0----------------------|
A|--------------------------2--------------------3--------------|--------------------------------|
E|--0-----------------------------------------------------------|--------------------------------|

Chorus:
e|--------------------------------------------------------------|-----------------------------------------|
B|-------0----------0-----0--3--3--------0--0-----------0-----0-|-3--3/5----3-0---------------------------|
G|--0h2-----2--0--2----2--------0-----2--------2--0--2-----2----|----0-----------------0--2--2-------0h2--|
D|------------------------------------0-------------------------|-------------------0-----------0h2-------|
A|------------------------------------2-------------------------|-----------------------------------------|
E|------------------3-----------x--3--------x-----------0-------|----x---0-------3-----------x------------|

e|------------------------------------------------------------0-|---------------------------------|
B|--0---------------------------------------------0--3--3--0----|-3--0--3--0----------------------|
G|-----2--0--2--0--2--0--2--3-2--0--2-----0-0--2--------0-------|-------------2--0--2--2--0-0-----|
D|--------------------------------------------------------------|------------------------------2--|
A|--3-----------------------3-----------------------------------|----------0----------------------|
E|--------------x----------------------x----------3-----------x-|----------------------x----------|

e|----------------------------------------------3-3-3-2--2-0--0-|----------------------------------------|
B|----------x------------0----------------------0----------0----|-3--3--0-----------0-----------0--------|
G|--0-----0-x-0-0--0--2-----2--0--2--2--0-0--0------------------|----------2--0--2--0--2--0--2--------0--|
D|-----2----x---------------------------------------------------|----------------------------------2-----|
A|--3-------x------------3--------------------------------------|-------------------------------3--------|
E|--------------x--------------------x----------3----------x----|-------3-----------x--------------------|

e|-------------------------------------------|
B|------------------0------------------------|
G|--2----------0h2-----2--0--0-----0h2-0-----|
D|--------0h2-------------------2------------|
A|------------------3------------------------|
E|-----x---------------------x------------3--|

Other versions of Titibo-tibo Acoustic

Titibo-tiboChords
Titibo-tibo (Ver. 2)Chords
Titibo-tiboTabs

Almost there ...

Sign in to get your own page with links to favourite songs and more. You are just one click away...

Login with Facebook Login with Google