Search tabs and chords

Search for song, artist or band

Log in

One click and you are in

Login with Facebook Login with Google

Why sign up and log in

Guitar Tabs Explorer
Moira Dela Torre guitar tabs for Tagpuan

Guitar tabs

  • Capo on 1st
Intro:

e|----3------2------3----3/7--5-|
B|--3-3-3--3-3--3-3-3--3-0----0-|
G|--0------0------0-------------|
D|-----------------------0------|
A|---------2------3-------------|
E|--3---------------------------|

e|---7-------5-----3-3--2-|
B|-0-0--0--0-0-0-0-0-3--3-|
G|-0-------0-----0--------|
D|-5-----------------0----|
A|---------------3--------|
E|---------7--------------|
Verse 1:

e|-----------------------------------------------------------------|
B|-0------0-3-3--3/5-0----------0-------0--0---------------0-----0-|
G|-0---0--0-0-0------0--2-----2-----0h2-0--0-2-0-----0----0----0---|
D|---0--0-------------------0----------------------2----0-----0----|
A|-------------------2----2-------------3----3---3-----------------|
E|-3------3--------------------------------------------3---3-------|

e|-----------------------------------------------------------------|
B|-0------0-3-3--3/5-0----------0-------0--0---------------0-----0-|
G|-0---0--0-0-0------0--2-----2-----0h2-0--0-2-0-----0----0----0---|
D|---0--0-------------------0----------------------2----0-----0----|
A|-------------------2----2-------------3----3---3-----------------|
E|-3------3--------------------------------------------3---3-------|


Refrain 1:

e|-2----3----------------------------|
B|-0--0-0-----0--3-0-----0-3-0-------|
G|---0------0----0-0---2-----0---2-0-|
D|-------------------------------0-0-|
A|-3---------------------------------|
E|-------------------3---------3-----|

e|-2----3----------------------------|
B|-0--0-0-----0--3-0-----0-3-0-------|
G|---0------0----0-0---2-----0---2-0-|
D|-------------------------------0-0-|
A|-3---------------------------------|
E|-------------------3---------3-----|

e|-2----3--0-3s5--7-5-5-3-3-0----------3-|
B|-0--0-0--0------0-0-0-0---0------1---1-|
G|---0----------------------------2----2-|
D|----------------0-----0-------2----2-2-|
A|-3--------------------------0--------0-|
E|---------------------------------------|

Chorus:

e|-3-5--7---5p3p2----0-2-3---2-0---------|
B|-0----0---0--------0---0---0-0-3-3---0-|
G|--------0--------0-------------0-0---0-|
D|------5--------------------------------|
A|----------------2--------3---------3---|
E|---------------------------------------|

e|-3-5--7---5p3p2----0-2-3--5-7--3-5--|
B|-0----0---0--------0---0----0-------|
G|--------0--------0------------------|
D|------5-----------------------------|
A|----------------2------3----------3-|
E|------------------------------------|

e|-3-5--7---5p3p2----0-2-3---2-0---------|
B|-0----0---0--------0---0---0-0-3-3---0-|
G|--------0--------0-------------0-0---0-|
D|------5--------------------------------|
A|----------------2--------3---------3---|
E|---------------------------------------|

e|--3-2--0---3-5--7--0-3-3-|
B|--0-0--0---0-0--0--0---3-|
G|---------0-------------0-|
D|-----------------------2-|
A|-------0-----------3---3-|
E|-------------7-----------|

e|--3-2--0---3-5--7--0---3-0-3-3-3-3--2-|
B|--0-0--0---0-0--0--0-------3-3-3-3--3-|
G|---------0----------------------------|
D|-------------------------0-----0------|
A|-------0-----------3------------------|
E|-------------7------------------------|


Instrumental:

e|----3------2------3----3--2--|
B|--3-3-3--3-3--3-3-3--3-0--0--|
G|--0------0------0------------|
D|-----------------------0-----|
A|---------2------3------------|
E|--3--------------------------|


Verse 2:

e|-----------------------------------------------------------------|
B|-0------0-3-3--3/5-0----------0-------0--0---------------0-----0-|
G|-0---0--0-0-0------0--2-----2-----0h2-0--0-2-0-----0----0----0---|
D|---0--0-------------------0----------------------2----0-----0----|
A|-------------------2----2-------------3----3---3-----------------|
E|-3------3--------------------------------------------3---3-------|

e|-----------------------------------------------------------------|
B|-0------0-3-3--3/5-0----------0-------0--0---------------0-----0-|
G|-0---0--0-0-0------0--2-----2-----0h2-0--0-2-0-----0----0----0---|
D|---0--0-------------------0----------------------2----0-----0----|
A|-------------------2----2-------------3----3---3-----------------|
E|-3------3--------------------------------------------3---3-------|


Refrain 2:

e|-2----3----------------------------|
B|-0--0-0-----0--3-0-----0-3-0-------|
G|---0------0----0-0---2-----0---2-0-|
D|-------------------------------0-0-|
A|-3---------------------------------|
E|-------------------3---------3-----|

e|-2----3----------------------------|
B|-0--0-0-----0--3-0-----0-3-0-------|
G|---0------0----0-0---2-----0---2-0-|
D|-------------------------------0-0-|
A|-3---------------------------------|
E|-------------------3---------3-----|

e|-2----3--0-3s5--7-5-5-3-3-0----------3-|
B|-0--0-0--0------0-0-0-0---0------1---1-|
G|---0----------------------------2----2-|
D|----------------0-----0-------2----2-2-|
A|-3--------------------------0--------0-|
E|---------------------------------------|


Chorus:

e|-3-5--7---5p3p2----0-2-3---2-0---------|
B|-0----0---0--------0---0---0-0-3-3---0-|
G|--------0--------0-------------0-0---0-|
D|------5--------------------------------|
A|----------------2--------3---------3---|
E|---------------------------------------|

e|-3-5--7---5p3p2----0-2-3--5-7--3-5--|
B|-0----0---0--------0---0----0-------|
G|--------0--------0------------------|
D|------5-----------------------------|
A|----------------2------3----------3-|
E|------------------------------------|

e|-3-5--7---5p3p2----0-2-3---2-0---------|
B|-0----0---0--------0---0---0-0-3-3---0-|
G|--------0--------0-------------0-0---0-|
D|------5--------------------------------|
A|----------------2--------3---------3---|
E|---------------------------------------|

e|--3-2--0---3-5--7--0-3-3-|
B|--0-0--0---0-0--0--0---3-|
G|---------0-------------0-|
D|-----------------------2-|
A|-------0-----------3---3-|
E|-------------7-----------|

e|--3-2--0---3-5--7---10--|
B|--0-0--0---0-0--0---10--|
G|---------0--------------| (Itong part na to may tapping akong ginagawa
D|------------------------| watch nyo nalang ung vid para masundan nyo)
A|-------0----------------|
E|-------------7----------|

e|--3-2--0---3-5--7--0-3-3-|
B|--0-0--0---0-0--0--0---3-|
G|---------0-------------0-|
D|-----------------------2-|
A|-------0-----------3---3-|
E|-------------7-----------|

e|--3-2--0---3-5--7--0-3-3-|
B|--0-0--0---0-0--0--0---3-|
G|---------0-------------0-|
D|-----------------------2-|
A|-------0-----------3---3-|
E|-------------7-----------|

e|--3-2--0---3-5--7---10-|
B|--0-0--0---0-0--0---10-|
G|---------0-------------|
D|-----------------------|
A|-------0---------------|
E|-------------7---------|

e|--3-2--0---3-5--7--0-3-3--|
B|--0-0--0---0-0--0--0---3--|
G|---------0-------------0--|
D|-----------------------2--|
A|-------0-----------3---3--| (Itong part na to mahinahon na it means wala nang tapping ung nauna lang)
E|-------------7------------|

e|--3-2--0---3-5--7--0---3-0-3-3-3-3--2-|
B|--0-0--0---0-0--0--0-------3-3-3-3--3-|
G|---------0----------------------------|
D|-------------------------0-----0------|
A|-------0-----------3------------------|
E|-------------7------------------------|

Other versions of Tagpuan

TagpuanChords
Tagpuan acousticChords

Almost there ...

Sign in to get your own page with links to favourite songs and more. You are just one click away...

Login with Facebook Login with Google