Search tabs and chords

Search for song, artist or band

Log in

One click and you are in

Login with Facebook Login with Google

Why sign up and log in

Guitar Tabs Explorer
Moira Dela Torre guitar tabs for Love me instead acoustic

Guitar tabs

-------------------------------------------------------------------------------
                             Love Me instead - Moira Dela Torre
-------------------------------------------------------------------------------

CAPO1

INTRO:
e|-------7-------7---------5--------5--------0--------0---------2--------2---|
B|-7-x-7---7-x-7-----5-x-5----5-x-5----0-x-0----0-x-0-----2-x-2---2-x-2------|
G|-8-x-8---8-x-8-----6-x-6----6-x-6----2-x-2----2-x-2-----2-x-2---2-x-2------|
D|-9-x-9---9-x-9-----6-x-6----6-x-6----2-x-2----2-x-2-----2-x-2---2-x-2------|
A|-7-x-7--77-x-7----44-x-4---44-x-4---00-x-0---00-x-0----22-x-2--22-x-2------|
E|---------------------------------------------------------------------------|

VERSE:
e|-------7-------7---------5--------5--------0--------0---------2--------2---|
B|-7-x-7---7-x-7-----5-x-5----5-x-5----0-x-0----0-x-0-----2-x-2---2-x-2------|
G|-8-x-8---8-x-8-----6-x-6----6-x-6----2-x-2----2-x-2-----2-x-2---2-x-2------| 2x
D|-9-x-9---9-x-9-----6-x-6----6-x-6----2-x-2----2-x-2-----2-x-2---2-x-2------|
A|-7-x-7--77-x-7----44-x-4---44-x-4---00-x-0---00-x-0----22-x-2--22-x-2------|
E|---------------------------------------------------------------------------|

PRE-CHORUS:
e|-------0--------0--------2--------2--------2-------2-----------------------|
B|-0-x-0----0-x-0----2-x-2----2-x-2----2-x-2----2-x-2-----4-x-4-4--4-x-4-4---|
G|-2-x-2----2-x-2----2-x-2----2-x-2----2-x-2----2-x-2-----4-x-4-4--4-x-4-4---|
D|-2-x-2----2-x-2----2-x-2----2-x-2----2-x-2----2-x-2-----4-x-4-4--4-x-4-4---|
A|-0-x-0---00-x-0---22-x-2---22-x-2---44-x-4---44-x-4-----6-x-6-6-66-x-6-6---|
E|---------------------------------------------------------------------------|

CHORUS:
e|-------7-------7---------5--------5--------0--------0---------2--------2---|
B|-7-x-7---7-x-7-----5-x-5----5-x-5----0-x-0----0-x-0-----2-x-2---2-x-2------|
G|-8-x-8---8-x-8-----6-x-6----6-x-6----2-x-2----2-x-2-----2-x-2---2-x-2------|
D|-9-x-9---9-x-9-----6-x-6----6-x-6----2-x-2----2-x-2-----2-x-2---2-x-2------|
A|-7-x-7--77-x-7----44-x-4---44-x-4---00-x-0---00-x-0----22-x-2--22-x-2------|
E|---------------------------------------------------------------------------|

e|-------7-------7---------5--------5--------0--------0---------2--------2---|
B|-7-x-7---7-x-7-----5-x-5----5-x-5----0-x-0----0-x-0-----2-x-2---2-x-2------|
G|-8-x-8---8-x-8-----6-x-6----6-x-6----2-x-2----2-x-2-----2-x-2---2-x-2------|
D|-9-x-9---9-x-9-----6-x-6----6-x-6----2-x-2----2-x-2-----2-x-2---2-x-2------|
A|-7-x-7--77-x-7----44-x-4---44-x-4---00-x-0---00-x-0----22-x-2--22-x-2------|
E|---------------------------------------------------------------------------|

e|-------2-------------------------------------------------------------------|
B|-2-x-2---4-x-4---0----2----------------------------------------------------|
G|-2-x-2---4-x-4---2----2----------------------------------------------------|
D|-2-x-2---4-x-4---2----2----------------------------------------------------|
A|-4-x-4---6-x-6---0----2----------------------------------------------------|
E|---------------------------------------------------------------------------|

VERSE:

e|-------7-------7---------5--------5--------0--------0---------2--------2---|
B|-7-x-7---7-x-7-----5-x-5----5-x-5----0-x-0----0-x-0-----2-x-2---2-x-2------|
G|-8-x-8---8-x-8-----6-x-6----6-x-6----2-x-2----2-x-2-----2-x-2---2-x-2------| 2x
D|-9-x-9---9-x-9-----6-x-6----6-x-6----2-x-2----2-x-2-----2-x-2---2-x-2------|
A|-7-x-7--77-x-7----44-x-4---44-x-4---00-x-0---00-x-0----22-x-2--22-x-2------|
E|---------------------------------------------------------------------------|

PRE-CHORUS:
e|-------0--------0--------2--------2--------2-------2-----------------------|
B|-0-x-0----0-x-0----2-x-2----2-x-2----2-x-2----2-x-2-----4-x-4-4--4-x-4-4---|
G|-2-x-2----2-x-2----2-x-2----2-x-2----2-x-2----2-x-2-----4-x-4-4--4-x-4-4---|
D|-2-x-2----2-x-2----2-x-2----2-x-2----2-x-2----2-x-2-----4-x-4-4--4-x-4-4---|
A|-0-x-0---00-x-0---22-x-2---22-x-2---44-x-4---44-x-4----66-x-6-6-66-x-6-6---|
E|---------------------------------------------------------------------------|

CHORUS:
e|-------7-------7---------5--------5--------0--------0---------2--------2---|
B|-7-x-7---7-x-7-----5-x-5----5-x-5----0-x-0----0-x-0-----2-x-2---2-x-2------|
G|-8-x-8---8-x-8-----6-x-6----6-x-6----2-x-2----2-x-2-----2-x-2---2-x-2------|
D|-9-x-9---9-x-9-----6-x-6----6-x-6----2-x-2----2-x-2-----2-x-2---2-x-2------|
A|-7-x-7--77-x-7----44-x-4---44-x-4---00-x-0---00-x-0----22-x-2--22-x-2------|
E|---------------------------------------------------------------------------|

e|-------7-------7---------5--------5--------0--------0---------2--------2---|
B|-7-x-7---7-x-7-----5-x-5----5-x-5----0-x-0----0-x-0-----2-x-2---2-x-2------|
G|-8-x-8---8-x-8-----6-x-6----6-x-6----2-x-2----2-x-2-----2-x-2---2-x-2------|
D|-9-x-9---9-x-9-----6-x-6----6-x-6----2-x-2----2-x-2-----2-x-2---2-x-2------|
A|-7-x-7--77-x-7----44-x-4---44-x-4---00-x-0---00-x-0----22-x-2--22-x-2------|
E|---------------------------------------------------------------------------|

e|-------2-------------------------------------------------------------------|
B|-2-x-2---4---------0-------------------------------------------------------|
G|-2-x-2---4---------2-------------------------------------------------------|
D|-2-x-2---4---------2-------------------------------------------------------|
A|-4-x-4---6---------0-------------------------------------------------------|
E|---------------------------------------------------------------------------|

BRIDGE:
e|---------------------------------------------------------------------------|
B|-7-----------------5------------------0------------------2-----------------|
G|-8-----------------6------------------2------------------2-----------------|
D|-9-----------------6------------------2------------------2-----------------|
A|-7-----------------4------------------0------------------2-----------------|
E|---------------------------------------------------------------------------|

e|---------------------------------------------------------------------------|
B|------0--------------------------------------------------------------------|
G|------1h2p1----------------------------------------------------------------|
D|------2-----2--------------------------------------------------------------|
A|------2-------0h2~---------------------------------------------------------|
E|---------------------------------------------------------------------------|

PRE-CHORUS:
e|---------------------------------------------------------------------------|
B|-0-----------------2------------------2------------------4-----------------|
G|-2-----------------2------------------2------------------4-----------------|
D|-2-----------------2------------------2------------------4-----------------|
A|-0-----------------2------------------4------------------6-----------------|
E|---------------------------------------------------------------------------|

CHORUS:
e|-------7-------7---------5--------5--------0--------0---------2--------2---|
B|-7-x-7---7-x-7-----5-x-5----5-x-5----0-x-0----0-x-0-----2-x-2---2-x-2------|
G|-8-x-8---8-x-8-----6-x-6----6-x-6----2-x-2----2-x-2-----2-x-2---2-x-2------|
D|-9-x-9---9-x-9-----6-x-6----6-x-6----2-x-2----2-x-2-----2-x-2---2-x-2------|
A|-7-x-7--77-x-7----44-x-4---44-x-4---00-x-0---00-x-0----22-x-2--22-x-2------|
E|---------------------------------------------------------------------------|

e|-------7-------7---------5--------5--------0--------0---------2--------2---|
B|-7-x-7---7-x-7-----5-x-5----5-x-5----0-x-0----0-x-0-----2-x-2---2-x-2------|
G|-8-x-8---8-x-8-----6-x-6----6-x-6----2-x-2----2-x-2-----2-x-2---2-x-2------|
D|-9-x-9---9-x-9-----6-x-6----6-x-6----2-x-2----2-x-2-----2-x-2---2-x-2------|
A|-7-x-7--77-x-7----44-x-4---44-x-4---00-x-0---00-x-0----22-x-2--22-x-2------|
E|---------------------------------------------------------------------------|

e|-------2-------------------------------------------------------------------|
B|-2-x-2---4-x-4---0----2----------------------------------------------------|
G|-2-x-2---4-x-4---2----2----------------------------------------------------|
D|-2-x-2---4-x-4---2----2----------------------------------------------------|
A|-4-x-4---6-x-6---0----2----------------------------------------------------|
E|---------------------------------------------------------------------------|

e|-------7-------7---------5--------5--------0--------0----------------------|
B|-7-x-7---7-x-7-----5-x-5----5-x-5----0-x-0----0-x-0-----2------0-----------|
G|-8-x-8---8-x-8-----6-x-6----6-x-6----2-x-2----2-x-2-----2------1-----------|
D|-9-x-9---9-x-9-----6-x-6----6-x-6----2-x-2----2-x-2-----2------2-----------|
A|-7-x-7--77-x-7----44-x-4---44-x-4---00-x-0---00-x-0-----2------0-----------|
E|---------------------------------------------------------------------------|


************************************

| h   hammer-on
| p   pull-off
| ~   vibrato
| x   Mute note

Other versions of Love Me Instead Acoustic

Love me insteadChords
Love me instead (Ver. 2)Chords
Love me insteadTabs

Almost there ...

Sign in to get your own page with links to favourite songs and more. You are just one click away...

Login with Facebook Login with Google