Search tabs and chords

Search for song, artist or band

Log in

One click and you are in

Login with Facebook Login with Google

Why sign up and log in

Guitar Tabs Explorer
Moira Dela Torre guitar tabs for Ikaw at ako

Guitar tabs

  • Capo on 2nd
Tuning: Standard (E chord diagramEE A chord diagramAA D chord diagramDD G chord diagramGG B chord diagramBB E chord diagramEE)

Difficulty: Novice

Verse 1:

e|--------0---------------------------------------------|
B|--1-1-3---3-1-3-1-0-1-1--0-1--------0h1---0--0---0----|
G|-----------------------------2--2-2-----2-------------|
D|------------------------------------------------------|
A|--3-----2-----2---------------------------------------|
E|----------------------3------1------------3----3---3--|

e|--------0-5-3-0-0-1-0---------------------------------|
B|--1-1-3----------------3-1-0-------0h1---3--3---3-----|
G|-----------------------------2-2-2-----2--------------|
D|------------------------------------------------------|
A|--3-----2-2---0---------------------------------------|
E|--------------------3--------1-----------3----3---3---|


Pre-Chorus 1:

e|-------------------0-1-0-----------|
B|-1-0-----1-0-1-3-0-------3-1-------|
G|-----2-2---------------------------|
D|-----------------------------------|
A|-------------------3-------0-------|
E|-----1-----3-----------------------|

e|-------------------0-1-0-----------|
B|-1-0-----1-0-1-3-0-------3-3-------|
G|-----2-2---------------------------|
D|-----------------------------------|
A|-------------------3---------------|
E|-----1-----3---------------3-------|

Chorus 1:

e|-0-0h1-3--3---3---1-0-1-3-3---3--3-1-0-1-0---0---------------------|
B|-------------------------------------------1---3-3-1-3--3---3------|
G|-------------------------------------------------------------------|
D|-------------------------------------------------------------------|
A|-------3----3---2-------0---0----3---------------------------------|
E|-----------------------------------------1-----------3----3---3----|

e|-0-0-0h1-3--3---3---1-0-1-3-3---3--3-1-0-1-0---0-------------------|
B|---------------------------------------------1---3-3-1-3--3---3----|
G|-------------------------------------------------------------------|
D|-------------------------------------------------------------------|
A|---------3----3---2-------0---0----3-------------------------------|
E|-------------------------------------------1-----------3----3---3--|

e|---0---------------0-1--------1-0h1-0-0----------------------------|
B|-1---1-----------------3-3--0--------------------------------------|
G|-------2-2---2---0-------------------------------------------------|
D|-------------------------------------------------------------------|
A|--------------------------------------3----------------------------|
E|-------1---1---1-------3---3---------------------------------------|


Verse 2:

e|--------0---------------------------------------------|
B|--1-1-3---3-1-3-1-0-1-1--0-1--------0h1---0--0---0----|
G|-----------------------------2--2-2-----2-------------|
D|------------------------------------------------------|
A|--3-----2-----2---------------------------------------|
E|----------------------3------1------------3----3---3--|

e|--------0-5-3-0-0-1-0---------------------------------|
B|--1-1-3----------------3-1-0-------0h1---3--3---3-----|
G|-----------------------------2-2-2-----2--------------|
D|------------------------------------------------------|
A|--3-----2-2---0---------------------------------------|
E|--------------------3--------1-----------3----3---3---|

e|-------------------0-1-0------------------------------|
B|-1-0-----1-0-1-3-0-------3-1--------------------------|
G|-----2-2----------------------------------------------|
D|------------------------------------------------------|
A|-------------------3-------0--------------------------|
E|-----1-----3------------------------------------------|

e|---------------------0-1-0----------------------------|
B|-1-0-------1-0-1-3-0-------3-3------------------------|
D|------2-2---------------------------------------------|
D|------------------------------------------------------|
D|---------------------3--------------------------------|
E|------1------3---------------3------------------------|


Chorus 2:

e|-0-0h1-3--3---3---1-0-1-3-3---3--3-1-0-1-0---0---------------------|
B|-------------------------------------------1---3-3-1-3--3---3------|
G|-------------------------------------------------------------------|
D|-------------------------------------------------------------------|
A|-------3----3---2-------0---0----3---------------------------------|
E|-----------------------------------------1-----------3----3---3----|

e|-0-0-0h1-3--3---3---1-0-1-3-3---3--3-1-0-1-0---0-------------------|
B|---------------------------------------------1---3-3-1-3--3---3----|
G|-------------------------------------------------------------------|
D|-------------------------------------------------------------------|
A|---------3----3---2-------0---0----3-------------------------------|
E|-------------------------------------------1-----------3----3---3--|

e|---0---------------0-1--------1-0h1-0-0----------------------------|
B|-1---1-----------------3-3--0--------------------------------------|
G|-------2-2---2---0-------------------------------------------------|
D|-------------------------------------------------------------------|
A|--------------------------------------3----------------------------|
E|-------1---1---1-------3---3---------------------------------------|



************************************

| h  Hammer-on

************************************

Other versions of Ikaw At Ako

Ikaw at AkoChords
Ikaw at Ako (Ver. 2)Chords

Almost there ...

Sign in to get your own page with links to favourite songs and more. You are just one click away...

Login with Facebook Login with Google