Log in

One click and you are in

Login with Facebook Login with Google

Why sign up and log in

Guitar Tabs Explorer
Moira Dela Torre guitar tabs for Hollow hallelujah

Guitar tabs with lyrics

Intro:

e|---------------|
B|---------------|
G|--------0------|  x4
D|----0----------|
A|---------------|
E|--3---3--------|
Verse 1:

e|----------------------------------------------------------------------------|
B|----------------------------------------------------------------------------|
G|--------0--------0--------0--------0----------0---------0-------0---------0-|
D|----0--------0--------0--------0-----------0--------0--------0--------0-----|
A|-----------------------------------------3---3----3---3----3---3----3---3---|
E|--3---3----3---3----3---3----3----3-----------------------------------------|

      I'm ready for my own funeral         dressed in all black

e|----------------------------------------------------------------------------|
B|----------------------------------------------------------------------------|
G|--------0--------0--------0--------0----------0---------0-------0---------0-|
D|----0--------0--------0--------0-----------0--------0--------0--------0-----|
A|-----------------------------------------3---3----3---3----3---3----3---3---|
E|--3---3----3---3----3---3----3----3-----------------------------------------|

    A chord diagramA majorA cigarette between my lips              I can burn out fast

e|----------------------------------------------------------------------------|
B|----------------------------------------------------------------------------|
G|--------0--------0--------0--------0----------0---------0-------0---------0-|
D|----0--------0--------0--------0-----------0--------0--------0--------0-----|
A|-----------------------------------------3---3----3---3----3---3----3---3---|
E|--3---3----3---3----3---3----3----3-----------------------------------------|

    Your arms are elevator doors             and I'm claustrophobic

e|----------------------------------------------------------------------------|
B|----------------------------------------------------------------------------|
G|--------0--------0--------0--------0----------0---------0-------0---------0-|
D|----0--------0--------0--------0-----------0--------0--------0--------0-----|
A|-----------------------------------------3---3----3---3----3---3----3---3---|
E|--3---3----3---3----3---3----3----3-----------------------------------------|

   I'm just ribs and bones and skeleton     but I won't show it


Chorus:

e|---------------------------------------------------------------------------|
B|---------------------------------------------------------------------------|
G|--------0--------0-------0--------0-----------0-------0-------0--------0---|
D|----2--------2--------2-------2-----------2--------2-------2-------2-------|
A|---------------------------------------------------------------------------|
E|--0---0----0---0----0---0---0---0-------0---0----0---0---0---0---0---0-----|

                                                  hollow

e|---------------------------------------------------------------------------|
B|---------------------------------------------------------------------------|
G|---------0-------0--------0--------0--------0--------0---------------------|
D|-----2--------2-------2--------2---------0-------0-------------------------|
A|--3----3----3---3---3---3----3---3-----------------------------------------|
E|---------------------------------------3---3---3---3-----------------------|

          hallelujah                    to the white lines and white lies


e|---------------------------------------------------------------------------|
B|---------------------------------------------------------------------------|
G|-------0------0-------0--------0--------0--------0--------0--------0-------|
D|----2------2-------2-------2--------0--------0--------0-------0------------|
A|--2--2---2---2---2---2---2---2---------------------------------------------|
E|----------------------------------3---3----3---3----3---3----3---3---------|

    the crooked teeth and empty speech

e|---------------------------------------------------------------------------|
B|---------------------------------------------------------------------------|
G|--------0-------0------0-----0--------0--------0------0-------0------------|
D|----2-------2------2------2--------2-------2-------2------2----------------|
A|---------------------------------3---3---3---3---3--3---3---3--------------|
E|--0---0---0---0---0--0---0--0----------------------------------------------|

         hold me                   I'm unholy

e|-------------------------------------------------------------------------------|
B|-------------------------------------------------------------------------------|
G|-------0--------0---------------------0------0--------0------0------0-------0--|
D|----0-------0---------------------2-------2-------0-------0------0------0------|
A|-------------------------------2----2---2---2----------------------------------|
E|--3---3---3---3---------------------------------3---3---3---3---3--3---3---3---|

 full of wrong touch and mistrust  a silhouette    dressed in regret


Verse 2:

e|----------------------------------------------------------------------------|
B|----------------------------------------------------------------------------|
G|--------0--------0--------0--------0----------0---------0-------0---------0-|
D|----0--------0--------0--------0-----------0--------0--------0--------0-----|
A|-----------------------------------------3---3----3---3----3---3----3---3---|
E|--3---3----3---3----3---3----3----3-----------------------------------------|

   Make me move like I'm on strings         I won't ask why

e|----------------------------------------------------------------------------|
B|----------------------------------------------------------------------------|
G|--------0--------0--------0--------0----------0---------0-------0---------0-|
D|----0--------0--------0--------0-----------0--------0--------0--------0-----|
A|-----------------------------------------3---3----3---3----3---3----3---3---|
E|--3---3----3---3----3---3----3----3-----------------------------------------|

    Pin me down if you like babe            I won't cry

e|----------------------------------------------------------------------------|
B|----------------------------------------------------------------------------|
G|--------0--------0--------0--------0----------0---------0-------0---------0-|
D|----0--------0--------0--------0-----------0--------0--------0--------0-----|
A|-----------------------------------------3---3----3---3----3---3----3---3---|
E|--3---3----3---3----3---3----3----3-----------------------------------------|

   And you got all your loneliness          and I've got my shame

e|------------------------------------------------------------------------------------|
B|------------------------------------------------------------------------------------|
G|--------0--------0--------0--------0----------0---------0-------0---------0--------0|
D|----0--------0--------0--------0-----------0--------0--------0--------0---------0---|
A|-----------------------------------------3---3----3---3----3---3----3---3-----------|
E|--3---3----3---3----3---3----3----3-------------------------------------------3---3-|

   And if you like we'll call this love     But it's just a game (x3)         -a game


Chorus:

e|---------------------------------------------------------------------------|
B|---------------------------------------------------------------------------|
G|--------0--------0-------0--------0-----------0-------0-------0--------0---|
D|----2--------2--------2-------2-----------2--------2-------2-------2-------|
A|---------------------------------------------------------------------------|
E|--0---0----0---0----0---0---0---0-------0---0----0---0---0---0---0---0-----|

                                            hollow

e|---------------------------------------------------------------------------|
B|---------------------------------------------------------------------------|
G|---------0-------0--------0--------0--------0--------0---------------------|
D|-----2--------2-------2--------2---------0-------0-------------------------|
A|--3----3----3---3---3---3----3---3-----------------------------------------|
E|---------------------------------------3---3---3---3-----------------------|

   hallelujah                        to the white lines and white lies

e|---------------------------------------------------------------------------|
B|---------------------------------------------------------------------------|
G|-------0------0-------0--------0--------0--------0--------0--------0-------|
D|----2------2-------2-------2--------0--------0--------0-------0------------|
A|--2--2---2---2---2---2---2---2---------------------------------------------|
E|----------------------------------3---3----3---3----3---3----3---3---------|

   the crooked teeth and empty speech

e|---------------------------------------------------------------------------|
B|---------------------------------------------------------------------------|
G|--------0-------0------0-----0--------0--------0------0-------0------------|
D|----2-------2------2------2--------2-------2-------2------2----------------|
A|---------------------------------3---3---3---3---3--3---3---3--------------|
E|--0---0---0---0---0--0---0--0----------------------------------------------|

          hold me                   I'm unholy

e|-------------------------------------------------------------------------------|
B|-------------------------------------------------------------------------------|
G|-------0--------0---------------------0------0--------0------0------0-------0--|
D|----0-------0---------------------2-------2-------0-------0------0------0------|
A|-------------------------------2----2---2---2----------------------------------|
E|--3---3---3---3---------------------------------3---3---3---3---3--3---3---3---|

full of wrong touch and mistrust a silhouette    dressed in regret


Bridge:


e|---------------------------------------------------------------------------|
B|---------------------------------------------------------------------------|
G|---------------------------------------------------------------------------|
D|----0---0---0---0---0---0--0---0-----0---0--0--0--0--0--0--0---------------|
A|---------------------------------------------------------------------------|
E|--3---3---3---3---3---3---3--3-----2---2--2--2--2--2--2--2-----------------|

      I like when you burn        and you like when I can't learn and

e|---------------------|
B|---------------------|
G|---------------------|
D|----2--2--2--2--2----| (Repeat to end of line)
A|---------------------|
E|--0--0--0--0---0-----|

   you've got a way to make me feel small

e|---------------------------------------------------------------------------|
B|---------------------------------------------------------------------------|
G|---------------------------------------------------------------------------|
D|----0---0---0---0---0---0--0---0-----0---0--0--0--0--0--0--0---------------|
A|---------------------------------------------------------------------------|
E|--3---3---3---3---3---3---3--3-----2---2--2--2--2--2--2--2-----------------|

   And you like the dirty love      and I like when I'm not enough

e|---------------------|
B|---------------------|
G|---------------------|
D|----2--2--2--2--2----|  (Repeat to end of line)
A|---------------------|
E|--0--0--0--0---0-----|

 And I've got a way to make you feel wanted


Chorus:

e|---------------------------------------------------------------------------|
B|---------------------------------------------------------------------------|
G|--------0--------0-------0--------0-----------0-------0-------0--------0---|
D|----2--------2--------2-------2-----------2--------2-------2-------2-------|
A|---------------------------------------------------------------------------|
E|--0---0----0---0----0---0---0---0-------0---0----0---0---0---0---0---0-----|

                                             hollow

e|---------------------------------------------------------------------------|
B|---------------------------------------------------------------------------|
G|---------0-------0--------0--------0--------0--------0---------------------|
D|-----2--------2-------2--------2---------0-------0-------------------------|
A|--3----3----3---3---3---3----3---3-----------------------------------------|
E|---------------------------------------3---3---3---3-----------------------|

   hallelujah                          to the white lines and white lies

e|---------------------------------------------------------------------------|
B|---------------------------------------------------------------------------|
G|-------0------0-------0--------0--------0--------0--------0--------0-------|
D|----2------2-------2-------2--------0--------0--------0-------0------------|
A|--2--2---2---2---2---2---2---2---------------------------------------------|
E|----------------------------------3---3----3---3----3---3----3---3---------|

    the crooked teeth and empty speech

e|---------------------------------------------------------------------------|
B|---------------------------------------------------------------------------|
G|--------0-------0------0-----0--------0--------0------0-------0------------|
D|----2-------2------2------2--------2-------2-------2------2----------------|
A|---------------------------------3---3---3---3---3--3---3---3--------------|
E|--0---0---0---0---0--0---0--0----------------------------------------------|

     hold me                         I'm unholy

e|-------------------------------------------------------------------------------|
B|-------------------------------------------------------------------------------|
G|-------0--------0---------------------0------0--------0------0------0-------0--|
D|----0-------0---------------------2-------2-------0-------0------0------0------|
A|-------------------------------2----2---2---2----------------------------------|
E|--3---3---3---3---------------------------------3---3---3---3---3--3---3---3---|

Almost there ...

Sign in to get your own page with links to favourite songs and more. You are just one click away...

Login with Facebook Login with Google