Log in

One click and you are in

Login with Facebook Login with Google

Why sign up and log in

Guitar Tabs Explorer
Mogwai tabs for Cut   2 rights make 1 wrong

Guitar tabs

Mogwai - 2 Rights Make 1 Wrong

This, as shown, was all by ear.  If you feel, or know, that this tab is incorrect please
play it that way.  This is a simple yet moving song that I felt needed to be shared with
other Mogwai fans.  I'm not going into the timing or how you should pick each note but
just listen to the song while you read/practice this tab and hopefully you'll get the
just of it all.  Enjoy!

Standard Tuning

A chord diagramE MajorE
B-------------------2--------------------2--------------------2--------------------2----
G--------------2------2-------------2------2------------2-------2------------2------2--
A chord diagramD MajorD
A--------0--------------------0--------------------0--------------------0---------------
A chord diagramE MajorE

A chord diagramE MajorE
B-------------------2---------------------2--------------------2--------------------2----
G-------------2-------2-------------2------2------------2-------2------------2-------2-
A chord diagramD MajorD
A chord diagramA augmentedA
E--------2-------------------2--------------------2--------------------2----------------


A chord diagramE MajorE
B-------------------2---------------------2--------------------2--------------------2-----
G-------------2-------2-------------2------2------------2------2-------------2-------2--
D--------0--------------------0--------------------0--------------------0----------------
A chord diagramA augmentedA
A chord diagramE MajorE


A chord diagramE MajorE
B-------------------2---------------------2--------------------2--------------------2-----
G-------------2-------2-------------2------2------------2------2-------------2------2---
A chord diagramD MajorD
A--------2--------------------2--------------------2--------------------2----------------
A chord diagramE MajorE

Tab arranged by Luis F. V. (luisfv@pacbell.net)

Almost there ...

Sign in to get your own page with links to favourite songs and more. You are just one click away...

Login with Facebook Login with Google