Christmas Steps by Mogwai

Christmas Steps tab by Mogwai

Guitar tabs

Intro
e--------------------------------
B--------------------------------
G--------------------------------
D-----------6-------2-------2---- Do this
A--0/2--4-------0--------0------- however many
E--------------------------------  times it is
                  in the song
guitar 2(intro)
e----------------------------
B----------------------------
G----------------------------
D--66-66-66----77-77-77------
A--44-44-44----44-44-44------
E----------------------------

 then....
e--0-0-0-0-0-0--0--0--------- times 2
B-9-9-9-9-9-9-10-10----------
G----------------------------
D----------------------------
A----------------------------
E----------------------------

 then....
e---0-12---0-12---0-12---0-12----0-12-------
B-9------9------9------9------10------10----
G-------------------------------------------
D-------------------------------------------
A-------------------------------------------
E-------------------------------------------

then the heavy part....... (not exact)
e----------------------
B----------------------
G----------------------
D-9--6-----6--9--------
A-9--6--7--6--9--------
E-7--4--4--4--7--------
the guitar 2 during the heavy part....(on high e string)

e--4--12--12--12--11--7--4--

(figure out timing on yer own)

Find guitar tabs and chords

A B C D E F G H I J K L M N O P Q R S T U V W X Y Z #