Log in

One click and you are in

Login with Facebook Login with Google

Why sign up and log in

Guitar Tabs Explorer
Moe bass tabs for Timmy tucker

Bass tabs

TIMMY TUCKER
Album: Headseed (1993)
Bassist: Rob Derhak

by John
Intro (2x)
G-------------------------------------
D----------9-9p7-----------9x-9-7-----
A-7---------------7-------------------
E----3--7x-----------3--7x------------
 T T T P P  T T T P P P


Verse
G----9--------------------------
D------------5-------9-7--5-7---
A-7x---77-----------------------
E---------3x---33-7x--x-x3-3----
 T P TT T P TT T PTPTTPTP

G-------------------------------------
D----------9-9p7-----------9x-9-7-----
A-7---------------7-------------------
E----3--7x-----------3--7x------------
 T T T P P  T T T P P P
Riffs alternate w/ vocals


Chorus
G-----------------------------
D-----------------------------
A-----------------------------
E-5h6-5-5h6-5-5h6-5-5h6-8-7-5-

G--------------------
D-------------------- Repeat 4x
A-----------5-9------
E-7x-5-5-7x--7-------
Fill at end of riff

Almost there ...

Sign in to get your own page with links to favourite songs and more. You are just one click away...

Login with Facebook Login with Google