Log in

One click and you are in

Login with Facebook Login with Google

Why sign up and log in

Guitar Tabs Explorer
Modjo tabs for Lady

Guitar tabs

LADY
by modjo
tabbed by nikol
e-mail add: nichnath@yahoo.com
pls mail me for comments, tnx! have fun!


play 2x
e -----8---8------9---9------
b -----9--11------9---9------
g -----8--10-----10---8------

play 2x
e -----8---8-----9---9------
b ---------9-----9---9------
g------8----------------------

play 2x
e ----8---8-----9---9------
b ----7---7-----7---7------
g ----5---5-----6---6------

Other versions of Lady

LadyChords
Lady acousticChords
Lady hear me tonightChords

Almost there ...

Sign in to get your own page with links to favourite songs and more. You are just one click away...

Login with Facebook Login with Google