Log in

One click and you are in

Login with Facebook Login with Google

Why sign up and log in

Guitar Tabs Explorer
Modest Mouse tabs for Trailer trash

Guitar tabs

Title: Trailer Trash
Album: Lonesome Crowded West

Standard Tuning
Intro/Verses

   A chord diagramG+G                      A chord diagramD MajorD            A chord diagramC majorC
------------------------------------------------------------------------
---8--8--8---8--8--8--8/--3-3-3-3-3-33-555555---------------------------
---x--x--x---x--x--x--x/--2-2-2-2-2-22-555555-00-0---0-----------------
---9--9--9---9--9--9--9/--4-4-4-4-4-44-555555-22-2-4--------------------
---10-10-10--10-10-10-10/-5-5-5-5-5-55-333333-33-3----------------------
------------------------------------------------------------------------


Palm Muted Verses

  A chord diagramG+G                     A chord diagramD MajorD        A chord diagramC majorC
-----------------------------------------------------------------------
------------------------------------------------------------------------
--------------------------------------------------0---------------------
--9--9--9--9--9-9-9-9/--44444444-2222222222222224-----------------------
--10-10-10-10-10101910/-55555555-333333333333333-----------------------
-----------------------------------------------------------------------


Outro arpeggio

  A chord diagramG+G            A chord diagramD MajorD           A chord diagramC majorC

------------------------------------------------------------------------
--------8------------3-----------1-------------1------------------------
------7---7--------2---2-------0---0---0-----0---0---0------------------
----9-------9/---4-------4---2-------2-----2-------2--------------------
--10-----------5-----------3-------------3------------------------------
------------------------------------------------------------------------


End

Bend harmonics up and down with whammy-bar. Chords progression
in the background is the same one as above (G,D,C)

----------------------------------------------------------------------
------------------------------------------------------------------------
--7^-brbr---------7^brbr------------------------------------------------
----------7^-brbr--------7^brbr-----------------------------------------
------------------------------------------------------------------------
------------------------------------------------------------------------


The whole song just uses the 3 chords played in different ways.
Listen to the album for repititions and when to play what part.

Questions, Comments to: scott_houle@hotmail.com

Almost there ...

Sign in to get your own page with links to favourite songs and more. You are just one click away...

Login with Facebook Login with Google