Log in

One click and you are in

Login with Facebook Login with Google

Why sign up and log in

Guitar Tabs Explorer
Modest Mouse tabs for Perfect disguise

Guitar tabs

Title: Perfect Disguise
Album: The Moon And Antarctica

Standard Tuning
Intro

------------------------------------------------------------------------
--5-----5---------------------------------------------------------------
----5h6---6-/-4-/-2-----------------------------------------------------
------------------------------------------------------------------------
------------------------------------------------------------------------
------------------------------------------------------------------------

     Verses
----------2-----------2-----------0-----------0-------------------------
----2-------2---2-------2---0-------0---0-------0-----------------------
------4-----------4-----------2-----------2-----------------------------
--------4-----------4----4------2-----------2------2--------------------
--2-----------2-----------0-----------0---------------------------------
------------------------------------------------------------------------


Thats it, just play the Intro where its called for and stick to the
verses. There is some variation here, so listen to the song. If its
wrong, cut me some slack, its like 2:30 in the morning right now.


Questions, Comments to: scott_houle@hotmail.com

Other versions of Perfect Disguise

Perfect disguise - introTabs

Almost there ...

Sign in to get your own page with links to favourite songs and more. You are just one click away...

Login with Facebook Login with Google