Log in

One click and you are in

Login with Facebook Login with Google

Why sign up and log in

Guitar Tabs Explorer
Modest Mouse tabs for Lives

Guitar tabs

Title: Lives
Album: Moon and Antarctica

Standard Tuning

Intro/Verse

------------------------------------------------------------------------
------------------------------------------------------------------------
-------------------2b---------------------------------------------------
-------2-0-----0-4----4v---------2-0------------------------------------
---0-4-----4-2---------------0-4-----4-2-4\7-4-2-0----------------------
-2-------------------------2-----------------------2--------------------


Verse(...you were the dull sound...)

A chord diagramF#F#          A chord diagramBB

------------------------------------------------------------------------
------------------------------------------------------------------------
-3-3--3-3-3--4-4--4-4-4-------------------------------------------------
-4-4--4-4-4--4-4--4-4-4-------------------------------------------------
-4-4--4-4-4--2-2--2-2-2-------------------------------------------------
-2-2--2-2-2-------------------------------------------------------------


Bridge #1(...its hard to remember...)

A chord diagramC majorC         A chord diagramA augmentedA         A chord diagramC majorC         A chord diagramA augmentedA        A chord diagramG+G         A chord diagramFF     A chord diagramCadd9Cadd9 A chord diagramG+G

-----------------------------------------------------------------------
-15-15-15--12-12-12--15-15-15--12-12-12-10-10-10--8-8-8-3-3-3-3-3-3----
-0--0--0---0--0--0---0--0--0---0--0--0--0--0--0---0-0-0-0-0-0-0-0-0----
-x--x--x---x--x--x---x--x--x---x--x--x--x--x--x---x-x-x-2-2-2-0-0-0----
-15-15-15--12-12-12--15-15-15--12-12-12-10-10-10--8-8-8-3-3-3-2-2-2-----
------------------------------------------------------------------------


Bridge #2(...god is a woman...)

A chord diagramCadd9Cadd9      A chord diagramE minor 7Em7        A chord diagramG+G          F#/D

-----------------------3-3-3-3-3----------------------------------------
-3-3-3-3-3--3-3-3-3-3--3-3-3-3-3--3-3-3-3-3-----------------------------
-0-0-0-0-0--0-0-0-0-0--0-0-0-0-0--2-2-2-2-2-----------------------------
-2-2-2-2-2--2-2-2-2-2--0-0-0-0-0--0-0-0-0-0-----------------------------
-3-3-3-3-3--2-2-2-2-2--2-2-2-2-2--x-x-x-x-x-----------------------------
-----------------------3-3-3-3-3--2-2-2-2-2-----------------------------


Listen for structure, variations and rhythm.


Questions, comments: scott_houle@hotmail.com

Almost there ...

Sign in to get your own page with links to favourite songs and more. You are just one click away...

Login with Facebook Login with Google