Gravity Rides by Modest Mouse

Gravity Rides tab by Modest Mouse

Guitar tabs

Author/Artist: Modest Mouse
Title: Gravity Rides Everything
Album: The Moon and Antarctica
Email: scott_houle@hotmail.com

Standard Tuning


Intro over metronome (Re-appears later)

  Harmonics - Dive and Pull up on whammy bar, add delay
        to simulate backwards effects on cd.

----12-\--/---12-\--/---------------------------------------------------
----------------------12-\--/--12-\--/----------------------------------
------------------------------------------------------------------------
------------------------------------------------------------------------
------------------------------------------------------------------------
------------------------------------------------------------------------


Verse - Chords

 Asus2             E

--0-0-0-0-0-0-0-0-0-0-0-0-------0-0-0-0-0-0-0-0-0-0-0-0-----------------
--0-0-0-0-0-0-0-0-0-0-0-0-------0-0-0-0-0-0-0-0-0-0-0-0-----------------
--2-2-2-2-2-2-2-2-2-2-2-2-------1-1-1-1-1-1-1-1-1-1-1-1-----------------
--2-2-2-2-2-2-2-2-2-2-2-2-------2-2-2-2-2-2-2-2-2-2-2-2-----------------
--0-0-0-0-0-0-0-0-0-0-0-0-------2-2-2-2-2-2-2-2-2-2-2-2-----------------
--------------------------------0-0-0-0-0-0-0-0-0-0-0-0-----------------


Verse - Riff #1

Asus2              E

------------------------------------------------------------------------
---------0--------------0-----------------------------------------------
-----1-2---2-1------1-2---2-1---------------1---------------1-----------
-2-2------------2-2------------------1-2-4----2------1-2-4----2---------
---------------------------------2-2-------------2-2--------------------
------------------------------------------------------------------------


Verse - Riff #2

A/D                  E

------0-----------------0-----------------------------------------------
----2---2-----0-------2---2-----0-------0----------------0--------------
--2-------1h2---2p1-2-------1h2---2p1-1--1-------------1---1------------
-------------------------------------2-----1h2-4-2p1-2-------1h2-4-2p1--
------------------------------------------------------------------------
------------------------------------------------------------------------


Fill Near ending

------------------------------------------------------------------------
--7-9---7---^-----------------------------------------------------------
------9-----12----------------------------------------------------------
------------------------------------------------------------------------
------------------------------------------------------------------------
------------------------------------------------------------------------



Listen for variation and specific rhythm.


Questions, comments: scott_houle@hotmail.com

Other versions of Gravity Rides

Alternative guitar chords and tabs for Gravity Rides by Modest Mouse

Find guitar tabs and chords

A B C D E F G H I J K L M N O P Q R S T U V W X Y Z #