Log in

One click and you are in

Login with Facebook Login with Google

Why sign up and log in

Guitar Tabs Explorer
Modest Mouse tabs for Gravity rides everything

Guitar tabs

Title: Gravity Rides Everything
Album: The Moon And Antarctica

Standard Tuning
1st Part

----0---0---0---0---0---0---0---0---------------------------------------
--5---5---5---5---3---3---3---3-----------------------------------------
------------------------------------------------------------------------
------------------------------------------------------------------------
------------------------------------------------------------------------
------------------------------------------------------------------------

----0---0---0---0---2p0---2p0---2p0---2p0---0---------------------------
--2---2---2---2---0-----0-----0-----0-----0-----------------------------
------------------------------------------------------------------------
------------------------------------------------------------------------
------------------------------------------------------------------------
------------------------------------------------------------------------


2nd Part

--0---7---0---7---0---5---0---5-----------------------------------------
----5---5---5---5---3---3---3---3---------------------------------------
------------------------------------------------------------------------
------------------------------------------------------------------------
------------------------------------------------------------------------
------------------------------------------------------------------------

--0---4---0---4-----2p0---2p0---2p0---2p0---0---------------------------
----2---2---2---2-0-----0-----0-----0-----0-----------------------------
------------------------------------------------------------------------
------------------------------------------------------------------------
------------------------------------------------------------------------
------------------------------------------------------------------------

3rd Part

------0h7p0-----0h7p0-----0h5p0-----0h5p0-------------------------------
--5-5-------5-5-------3-3-------3-3-------------------------------------
------------------------------------------------------------------------
------------------------------------------------------------------------
------------------------------------------------------------------------
------------------------------------------------------------------------

------0h4p0-----0h4p0---2p0--2p0---2p0---2p0---0------------------------
--2-2-------2-2-------0----0-----0-----0-----0--------------------------
------------------------------------------------------------------------
------------------------------------------------------------------------
------------------------------------------------------------------------
------------------------------------------------------------------------

Muted Part


Note: Mute strings around 1st fret to get that chunk sound

---x-x-x-x-x-x-x-x-x-x--------------------------------------------------
---x-x-x-x-x-x-x-x-x-x--------------------------------------------------
---x-x-x-x-x-x-x-x-x-x--------------------------------------------------
---x-x-x-x-x-x-x-x-x-x--------------------------------------------------
---x-x-x-x-x-x-x-x-x-x--------------------------------------------------
---x-x-x-x-x-x-x-x-x-x--------------------------------------------------


This song also has some whammy bar dives on harmonics (but what
Modest Mouse song doesn't). I've left them out due in part to
laziness and the fact that its not a vital part to the song.
Listen to the album to get the rhythm and structure of the song.


Questions, Comments to: scott_houle@hotmail.com

Other versions of Gravity Rides Everything

Gravity rides everythingChords

Almost there ...

Sign in to get your own page with links to favourite songs and more. You are just one click away...

Login with Facebook Login with Google