Log in

One click and you are in

Login with Facebook Login with Google

Why sign up and log in

Guitar Tabs Explorer
Modest Mouse bass tabs for Florida

Bass tabs with lyrics

Florida, Modest Mouse
Tabbed by: Sam Hughes.
Standard Tuning
* - let ring
/ - slide
p - pull off
h - hammeron

Verse
G|----------------------7-----------------------------------------|
D|-------------------7----7---------------------------------------|
A|-3-2-00--2-------5--------5-3-2*--------------------------------|
E|-----------5-33-------------------------------------------------|

Final verse of each section goes like this:
G|----------------------7-7----54---------------------------------|
D|-------------------7-----7------5-------------------------------|
A|-3-2-00--2-------5----------------------------------------------|
E|-----------5-33-------------------------------------------------|


Chorus
G|-------54-------------------------------------------------------|
D|---------5-555555-------------45*-------------------------------|
A|-3-3-3---------------5-5-5--57----------------------------------|
E|------------------35-------5------------------------------------|


G|-------4h5p4--4-------------------------------------------------|
D|------------5---5-5--------------45*----------------------------|
A|-3-3-3-----------------5-5-5--57--------------------------------|
E|--------------------35-------5----------------------------------|


Brief Interlude
G|-9---------12---------------------------------------------------|
D|---10-9-12------------------------------------------------------|
A|----------------------------------------------------------------|
E|----------------------------------------------------------------|
even as I left Florda....


Middle8
G|-9---------12-------------12--9*--------------------------------| \
D|---10-9-12--------12*-------12----------------------------------| |
A|----------------------------------------------------------------| |
E|----------------------------------------------------------------| |
                                   -playx2
G|-9--------------------------------------------------------------| |
D|---10-9-7---------------5---------------------------------------| |
A|----------10*------5*----5/7------------------------------------| |
E|----------------------------------------------------------------| /

Drum Section, instrumental
G|--------------------------------|-------------------------------|
D|--------------------------------|-------------------------------|
A|-7-----------2-3-5-3-2-----2-3-5|-------------------------------|
E|---8-7-5-3-5-----------5-3------|-x2----------------------------|
After this is played twice, the bass stops.
This is fairly obscure, i'm not sure if it's 100% correct, but it sounds fine to
play along with it. Comment if you think it is played differently.


Outro, before bassless ending.
G|------------------------------|---------------------------------|
D|------------------------------|---------------------------------|
A|-/7-0-000000-/7-0-000000------|---------------------------------|
E|-------------------------3333-|-x2------------------------------|


And that's it, great song. If you don't agree, please comment and i'll have a
play and see if I can improve on this. I think it's pretty close though.

Thanks,
Ham

Almost there ...

Sign in to get your own page with links to favourite songs and more. You are just one click away...

Login with Facebook Login with Google