Log in

One click and you are in

Login with Facebook Login with Google

Why sign up and log in

Guitar Tabs Explorer
Modest Mouse bass tabs for Float on

Bass tabs

-------------------------------------------------------------------------------
			   Float On - Modest Mouse
-------------------------------------------------------------------------------

Tabbed By : Ben R.
e-mail: arsonite@rock.com

  The bass for this song is really simple and fun to play. This is a great song you
should check out these guys. Any comments, questions and other stuff email me.

Intro / Verse
G|-----------------------------------------------------------|
D|-----------------------------------------------------------|
A|-9--9--9--9h11--8--8--8--86-------------------------------|
E|------------------------------7--7--7--7-9--6--6--6--6/9---|


First Chorus
G|-----------------------------------------------------------|
D|-----------------------------------------------------------|
A|-9--------9/11--8--------86-------------------------------|
E|------------------------------7--------7/9--6--------6/9---|


G|-----------------------------------------------------------|
D|-----------------------------------------------------------|
A|-9--------9/11--8--------86-----------------------6---8---|
E|------------------------------7--------7/9--6---9----------|


Middle
G|-----------------------------------------------------------|
D|-----------------------------------------------------------|
A|-9-----------------------------------------------------8---|
E|-----------------------------------------------------------|



Outro Chorus
G|-----------------------------------------------------------|
D|-----------------------------------------------------------|
A|-9--9--9--9h11--8--8--8--86-------------------------------|
E|------------------------------7--7--7--7/9--6--6--6--6/9---|



Ending
G|-------|
D|-------|
A|-9-----|
E|-------|





| / slide up
|  slide down
| h hammer-on
| p pull-off
| ~ vibrato
| + harmonic
| x Mute note

Almost there ...

Sign in to get your own page with links to favourite songs and more. You are just one click away...

Login with Facebook Login with Google